Give The Mule What He Wants - Queens Of The Stoneage

intro
G|-----------------------------------------------------------------|
D|----------5-------------7h5--------------------------------------|
A|3--3--3/7---5--------------7-75-53--3--3/7-5-7-----------------|
E|--------------5--55-5--5-------------------------5--55-5--55(0)-|

bridge/chorus riff verse riff
G|------------------------------|--------------|
D|------------------------------|--------------|
A|3--3--2-3-2------7------------|3--3----------|
E|------------5--5---5--5-5(0)-|-----5--5--3h5|

tabbed by Achilles ([email protected])




Ваше мнение



Капча