Queens Of The Stone Age - Avon
Submitted By: Sqweeky
EMail: [email protected]
Mikey Deviant - [email protected]
Here we go, this is the first tune that I’ve
tabbed out on the net, and I’m pretty sure
its right, or I wouldn’t waste your time and
mine
To get the real feel, you gotta tune your
whole guitar down to C, but it works on normal tuning.
Intro/Outro:
C----------------------------
G----------------------------
D#----------------------------
A#----------9-----------------
F# --9---9---------------------
C ----7---7--7-7-7-----------
Extended Intro:
C--------------------------------------------[----------------------]---------
G--------------------------------------------[----------------------]---------
D#-------------------------------------------[----------------------]---------
A#----------9-------------------10-----------[------------12--------]---------
F# --9---9------------9---10--------------10-[---12---------------12]---------
C ----7---7--7-7-7-----8----8----8-8-8------[10----10----10-10-10--]----------

repeat the part in brackets once.
Repeat this whole part, but on the second one finish with

A# --12--11--10-------------------
F# --12--11--10----------------------
C --10---9---8---------------------
Then the verse and chorus are quite simple.
The rhythm is just nice steady, churning downstrokes in the
usual Homme tradition. The number of strokes you need
to play is below the tab.
Verse:

C --------------------------------------------------------
G --------------------------------------------------------
D#---------------------------------------------------------
A#---9--10---12---11--10-----------------------------------
F#---9--10---12---11--10-----------------------------------
C ---7---8---10---9----8-----------------------------------

8 8 14
Chorus:
C --------------------------------------------------------
G --------------------------------------------------------
D#-------------------------9---------------------------
A#----9---8---12---6---5---9---------------------------
F# ---9---8---12---6---5---7---------------------------
C ---7---6---10---4---3---0---------------------------
These chords are all strummed 8 times.
Sequence:
Intro/Outro
Riff 1
Verse
Chorus
Verse
Chorus X2
(Drum break)
Riff 1 (solo goes over this. Watch this space for that one)
Intro/Outro.





Ваше мнение



Капча