song:Auto Pilot
tabber:enjoyincubus69
Tuning - C F Bb Eb G C-basically standard for q.o.t.s.a
a pretty odd song which sounds like something from da 60s or something but its
pretty sweet anyway
intro/verse riff:
-----------------------------------------------|
-----------------------------------------------|
---6-8-8-6-8-8-6-6-6--11-11-11--10-10--6-6-6---|
---6-8-8-6-8-8-6-6-6--11-11-11--10-10--6-6-6---|
---4h6-6-4h6-6-4-4-4---9--9--9---8--8--4-4-4---|
-----------------------------------------------|
intro solo:
------------------------------------------------------------------------|
-----16------16---16hb--16hb--16br-14h16p14-----------------------------|
--14------14---------------------------------15-------------------------|
-------------------------------------------------13--------16-18--18hb--|
-----------------------------------------------------16h18--------------|
------------------------------------------------------------------------|chorus rhythm:
-------------------------------------------------------|
-------------------------------------------------------|
---8-8-8-8-8-8-8-8--4-4-4-4-4-4-4-4--------------------|
---8-8-8-8-8-8-8-8--4-4-4-4-4-4-4-4--6-6-6-6-6-6-6-6---|
---6-6-6-6-6-6-6-6--2-2-2-2-2-2-2-2--6-6-6-6-6-6-6-6---|
-------------------------------------4-4-4-4-4-4-4-4---|
chorus lead:
---------------------------------------------|
---------------------------------------------|
---------------------------------------------|
---18hbr--18hbr--16h18---------------16------|
-----------------------18--18--16h18----18---|
---------------------------------------------|fill:
----------|
----------|
---20br---|
----------|
----------|
----------|
chorus 2 lead:
-------------------------------------------|
-------------------------------------------|
-------------------------------------------|
---18br--18br--16h18---------------16------|
---------------------18--18--16h18----18---|
-------------------------------------------|
----------------------------------------|
----------------------------------------|
----------------------------------------|
---18br--18br--16h18---------------16---|
---------------------18--18--16h18------|
----------------------------------------|
--------------------------------------------|
--------------------------------------------|
---20br--206br---18h20--------------20------|
----------------------20--20--18h20----18---|
--------------------------------------------|
--------------------------------------------|
--------------------------------------------|
--------------------------------------------|
--------------------------------------------|
---18br--18br--16h18---------------16-------|
---------------------18--18--16h18----18----|
--------------------------------------------|
bridge:
----------------------------------|----------------------|
----------------------------------|----------------------|
---9-9----------------------------|---9-9----------------|
---9-9--9-9-9-9--11-11--6-6-6-6---|---9-9--9-9-9-9--11---|
---7-7--9-9-9-9--11-11--6-6-6-6---|---7-7--9-9-9-9--11---|
--------7-7-7-7---9--9--4-4-4-4---|--------7-7-7-7---9---|
chorus lead 4th time:
-----------------------------------|
-----------------------------------|
------------------20--20-18-20br---|
---18br--18br--16------------------|
-----------------------------------|
-----------------------------------|
outro lead:
-------------------------------------------|
-------------------------------------------|
---20br--20br--18h20---------------18------|
---------------------20--20--18h20----20---|
-------------------------------------------|
-------------------------------------------|
----------------------------------|
--------------21b-21-21-19h21-----|
--20br--20br------------------20--|
----------------------------------|
----------------------------------|
----------------------------------|
-----------------------------------------|
--21br--21br--19h21---------------19-----|
--------------------20--20--18h20----20--|
-----------------------------------------|
-----------------------------------------|
-----------------------------------------|
enjoy




Ваше мнение



Капча