Queen: You and I

solo
|-----------------------------------------------------------------------|
|-----------------------------------------------------------------------|
|-----------------7-9b11-------------------------------------______-----|
|-----___---7---9---------------------------------7-9b11-----9b10r9---7-|
|-5---7/9-----------------------------___---7---9-----------------------|
|-----------------------------9-9-5---7/9-------------------------------|

|-----------------------------------------------------------------------|
|--------------------------------7-10b12----10-9------------------------|
|--------------------------6/7-9-----------------10-7-------9b11____r9--|
|------------------7---9------------------------------9-6---------------|
|----------7---9--------------------------------------------------------|
|-7---10----------------------------------------------------------------|

|---------7----------------------------------------------------------------|
|-10b12-----10-------------------------------------------------------------|
|--------------9b11---7---------------------------------------------7---9--|
|-------------------------9-7------------------------7__\5----7/9----------|
|-----------------------------8b---5---___---7---9--------5----------------|
|--------------------------------------7/9---------------------------------|

|--------------------------------|
|---------------------------5----|
|-10r9__b11-11r9p7---7___\5-5h6--|
|------------------9-------------|
|--------------------------------|
|--------------------------------|
Transcribed by Pinter Denes




Ваше мнение



Капча