QUEEN : WHITE QUEEN
-------------------
from the album QUEEN II
/ Brian May 1973 /

three guitars
|------|-19tr17--|-17tr15--|-15tr14--|
|---|-15------|-15tr12--|-12tr10--|
|--|-12tr11--|-11tr9---|--9tr7---|
|---|---------|---------|---------|
|------|---------|---------|---------|
|------|-left----|-right---|-left----|

acoustic guitar:
|-------------0------2---|-3-2----2---|----------0-|----------0-|---2----|
|---------3---------3----|-3-3----3---|-0-3----3-0-|----------0-|-0-3----|
|-------0----------2-----|--------2---|-0-2----2-0-|--------2-0-|-0-2----|
|-----0-----------0------|-0-0----0-2-|-0-0----0---|-5----2-2-|-0------|
|-0h2--------------------|----------2-|------------|-5----2-2-|-2------|
|------------------------|----------0-|------------|-3----------|--------|

|------------------------------------------------------------------|----|
|------1---0-----------1---0-------------------------1-------------|----|
|--------------2---------------2-------2---2---2-------4-------2---|-0/-|
|----2---2---2---2---2---2---2---2---2---0-------1-------2---2---2-|-/0-|
|--0-----------------------------------------3---------------------|----|
|------------------3---------------1---------------1-------0-------| 2X |

|-----------------0-------------5-----5---------------------------------------|
|-------------0---1---3-------5-----5---5-----3-------1-------3---------------|
|-----2-----------0---0-----5---------------2---2-----------2---2-----2...----|
|---2---2---0---0-2---0---7---------------0---------2---2-0---------2---------|
|-0---------------3---2-----------7---------------0---------------0-----------|
|---------3-------------------------------------------------------------------|

two gtrs arr for one
|-3--2-----2--0-----3--2-----0--0-----3--2-----0--0-----3--2---|
|-3--3-----3--0-----3--3-----0--0-----3--3-----0--0-----3--3---|
|-4--2-----2--0-----4--2-----2--0-----4--2-----2--0-----4--2---|
|-5--0-----0--2-----5--0-----2--2-----5--0-----4--2-----5--0---|
|----------------------------------------------0--2------------|
|----------------------------------------------0--0------------|
acoustic guitar:
|-----------------------------------------------------------------|----|
|-----1---0-----------1---0---------------0---------1-------------|----|
|-------------2---------------2-------2-------2-------4-------2---|-0/-|
|---2---2---2---2---2---2---2---2---2---0-------1-------2---2---2-|-/0-|
|-0-----------------------------------------3---------------------|----|
|-----------------3---------------1---------------1-------0-------| 2X |

Am Dm/E A7 Dm F7 B B/a Gm Gm7 Esus4 E
?|-------------0-------1-------1-----|
?|---------3---2---------------------|
?|-2---2---2-----2---2---2---2---2---|
?|---2---2---2-----0-------1---------|
?|-0-------0-------------------------|
?|-----------------------------------|

acoustic guitar behind the solo
|------------------|------------------|-----------------|-------------0---|
|----0h1------0----|-----0h1------0---|-----1-------0---|-----1-----------|
|-2-----2---2--2-2-|--------2---2--22-|---2---2---2--222|---2---2---2---2-|
|---2------2-2--2--|---2-----2--------|-----------------|-1-------2-------|
|---------0--------|------------------|-----------------|-----------------|
|------------------|-3--------3-------|-1-------1-------|-----------------|

acoustic solo
|--------------------------------------------------------------|
|--------------------------------------------------------------|
|--------------------------------------------------------------|
|-7----11r9-7-7-7-7vvvv---10r9-7-9-10-12p10-9-10-9hp---9-7-----|
|----------------------------------------------------------7v--|
|--------------------------------------------------------------|

|-----------------------------------------------------------|
|-----------------------------------------___---------------|
|-7-b8-b9-9r7---7-5hp---4-5-4hp---5p4-5-7-9r7p5---7-5-7/9---|
|-----------------------------------------------------------|
|-----------------------------------------------------------|
|-----------------------------------------------------------|

|------------------------------------___________-------___________-------|
|---------8---8-10-8/10---10/12---12-12h13p12p10-12-13-12h13p12p10-12-10-|
|-9/11-11----------------------------------------------------------------|
|------------------------------------------------------------------------|
|------------------------------------------------------------------------|
|------------------------------------------------------------------------|

|-----------------------------------------------------------------|
|-------------------x---------------------------------------------|
|-9p7(5)-7p5-7p5v--x---5-7-8-8p7-8p7-8p7p5-7p54-5---4-2-4-0-2...|
|-----------------------------------------------------------------|
|-----------------------------------------------------------------|
|-----------------------------------------------------------------|

acoustic guitar 2
|-12r10p8-7-8-7h8p7----------------------------------------------------------|
|-------------------10-------------------------------------------------------|
|----------------------9-7----------------5-7-5-5-7b9---b9-b9-b9-b9-b9r7-5-7-|
|--------------------------10p9-10-5-7---------------------------------------|
|----------------------------------------------------------------------------|
|----------------------------------------------------------------------------|

|------------------------------------------------------------------------|
|------------------------------------------------------------------------|
|--7p5-5-5-5-54-4-4-42---2---5r4p2-4p2-4-4b-b5-b5-b5-b5-b5r4p2-5r4p2---|
|------------------------------------------------------------------------|
|------------------------------------------------------------------------|
|------------------------------------------------------------------------|

|-----------------------------------------------------|
|-_____---_____-----_____-------_____-------_____-----|
|-5r4p2-4-5r4p2-4-5-4b5r4-2-4-5-4b5r4-2-4-5-4r5r4p2---|
|-----------------------------------------------------|
|-----------------------------------------------------|
|-----------------------------------------------------|

two guitars
|---------------------------------| |-----------------------5-7-|
|-10---10---10-8-7--3-------------| |---------------4-5-7-8-----|
|-11---11---11-7-2--2---2-4--2-4--| |---------4-6-8--11---------|
|-----------------------4-2--1----| |---4-5-7-------------------|
|---------------------------------| |-7-------------------------|
|------------------------------0--| |---------------------------|

|---------------------------12b13---b13__r12p10-12v---10--|
|-12b13v__r12p10-12vvv-10---------------------------------|
|---------------------------------------------------------|
|---------------------------------------------------------|
|---------------------------------------------------------|
|---------------------------------------------------------|

|---------------------------------------------------------------|
|-18b20v--17-15------------17b18--r17p15h17--18-17h18hp-15-17v--|
|---------------17-15vv-----------------------------------------|
|---------------------------------------------------------------|
|---------------------------------------------------------------|
|---------------------------------------------------------------|

...
acoustic guitar:
|-2--0--------------------------0---3----3p2------0-----------------------0--|
|-3--0-----0--0----------3---3--0---3--3----3-----0--------3------------0----|
|-2--0-----0--0-------0--2------0---0--------2-2--0---0----2----------1------|
|-0--2-----4--4p2-0---0--0---0--2---0--0-------0--2---0-0--0--------2--------|
|----2--------------2-2-------------------------------5------4---2----------|
|----0----------------3--2----------------------------3-2-------0------------|




Ваше мнение



Капча