Здесь сделана попытка расписать партию рок-органа (партии остальных инструментов
постараюсь расписать в дальнейшем).
Первый куплет:
e)-----------------------------------------------------------------------------
B)--3-3-3-3-2-2-2-2-5-5-5-5-3-3-3-3-3-3-3-3-2-2-2-2-5-5-5-5-3-3-3-3-3-3-3-3----
G)--4-4-4-4-4-4-4-4-4-4-4-4-4-4-4-4-4-4-4-4-4-4-4-4-4-4-4-4-4-4-4-4-4-4-4-4----
D)--4-4-4-4-4-4-4-4-4-4-4-4-4-4-4-4-5-5-5-5-5-5-5-5-5-5-5-5-5-5-5-5-5-5-5-5----
A)--2-----------------------------0--------------------------------------------
E)----------------------------------3-------------------------------0----------
e)------------------------------------------|
B)--2-2-2-2-2-2-2-2-2-2-2-2-0---------------|
G)--4-4-4-4-4-4-4-4-3-3-3-3-0------3--------|
D)--5-5-5-5-4-4-4-4-4-4-4-4-2---------------|
A)------------------------------------------|
E)----------2---------------0---------------|
Второй куплет играется почти также, только все ноты на 1 тон выше
(2 лада на гитаре)
Проигрыш (My soul is painted like a wings of butterflies...)
Он может показаться неправильно подобраным, но рок-орган в этом проигрыше
именно так и играет (как мне кажется).
e)-0------0---------------------0------0----------
B)-0------1---0---1------3------0------1------3---
G)-0------2-------2------4------0------2------2---
D)----------------3------5------------------------
A)--------0----------------------------0----------
E)-0----------3---1-------------0-----------------
My.. Fairy... grow... fly...
Кода (With the show will go on...)
e)---------------------------------------
B)--5------3---2---5------3---2---3------
G)--4--------------3--------------4------
D)--5--------------5--------------5------
A)---------------------------------------
E)---------------------------------------




Ваше мнение



Капча