Queen: The show must go on
solo
|-------------------------------________-------------14-15-17-b19---|
|-------------------------14-15-14h15p14----14-15-17----------------|
|-16-14----14-16----14-16----------------16-------------------------|
|-------16-------16-------------------------------------------------|
|-------------------------------------------------------------------|
|-------------------------------------------------------------------|
|-21-b22rbrbr21p19-b22---21--19-21p19----19----19----------|
|-------------------------------------21----22----22b24...-|
|----------------------------------------------------------|
|----------------------------------------------------------|
|----------------------------------------------------------|
|----------------------------------------------------------|
|...17b19---------------------------------------14-15-17-b19r17b19vv--|
|--------------14-16-14-16p14-16p14----14-15-17-----------------------|
|---------\/16----------------------16--------------------------------|
|---------------------------------------------------------------------|
|---------------------------------------------------------------------|
|---------------------------------------------------------------------|
|-14-------17b19----17b19----b19v--------22b24-22---22-19----19------------|
|----17-15----------------------------15------------------19----22b24vv..--|
|--------------------------------------------------------------------------|
|--------------------------------------------------------------------------|
|--------------------------------------------------------------------------|
|--------------------------------------------------------------------------|
Transcribed by Pinter Denes




Ваше мнение



Капча