Ami Asus2 Asus4 Ami F F5- F6 F
-0-0-0-0-0-0-0-0--0-0-0-0-0-0-0-0--1-1-1-1-1-1-1-1--1-1-1-1-1-1-1-1-|
-1-1-1-1-0-0-0-0--3-3-3-3-1-1-1-1--1-1-1-1-0-0-0-0--3-3-3-3-1-1-1-1-|
-2-2-2-2-2-2-2-2--2-2-2-2-2-2-2-2--2-2-2-2-2-2-2-2--2-2-2-2-2-2-2-2-|
-2-2-2-2-2-2-2-2--2-2-2-2-2-2-2-2--3-3-3-3-3-3-3-3--3-3-3-3-3-3-3-3-|
--------------------------------------------------------------------|
--------------------------------------------------------------------|
Dmi7 Dmi6 Esus4 E Dmi Dmi5-
-1-1-1-1-1-1-1-1--0-0-0-0-0-0-0-0--1-----1--|
-3-3-3-3-0-0-0-0--0-0-0-0-0-0-0-0--3-----3--|
-2-2-2-2-2-2-2-2--2-2-2-2-1-1-1-1--2-----1--|
-0-0-0-0-0-0-0-0--2-2-2-2-2-2-2-2--0-----0--|
------------------2-2-2-2-2-2-2-2-----------|
------------------0-0-0-0-0-0-0-0-----------|
(Dmi5-)|Ami | Ami | F |
Empty spaces what are we living for abandoned places I guess we
F |Dmi7 Dmi6 |Esus4 E | Dmi
know the score on and on does anybody know what we are looking for
Dmi5- |Ami |Ami |F |
another hero another mindless crime behind the curtain in the
F |Dmi7 Dmi6 |Esus4 E |Dmi
pantomime hold the line does anybody want to take it any-more. The
|Ami |Ami |F |F |Dmi7
show must go on the show must go on in-side my
Dmi6 |Esus4 E |Dmi Dmi5- |
heart is breaking my make-up may be flaking but my smile still
Ami |Ami ||Hmi |Hmi |
stays on Whatever happens I´ll leave it all to chance another
G |G |Emi7 Emi6 |F#sus4 F#
heartache another failed romance on and on does anybody know what
|Emi Emi5- | Hmi |Hmi
we are living for I guess I´m learning I must be warmer now
|G |G |Emi7 Emi6
I´ll soon be turning round the corner now out-side the dawn is
breaking
|F#sus4 F# |Emi Emi5- ||Dmi |
but inside in the dark I´m aching to be free The show must go
Ami |Ami |F |F |Dmi7 Dmi6
on the show must go on in-side my heart is breaking
|Esus4 E |Dmi Dmi5- |Ami |Ami |F |
my make-up may be flaking but my smile still stays on
F |Dmi7 Dmi6 |Esus4 E|Dmi Dmi5- |Eb F |Dmi
My soul is painted like the wings
of
Gmi |Eb F |Dmi Gmi
butterflies fairytales of yesterday will grow but never die
|G9 |C |Ami | Ami
|
I can fly___ my friends The show must go on the show must
go
F |F |Dmi7 Dmi6 |Esus4 E |Dmi
on I´ll face it with a grin I´m never giving in on with
the
|Ami|Ami|F |F |Dmi7 Dmi6 |Esus4
show I´ll top the bill I´ll overkill I have to find the
E |Dmi |Dmi5- |Dmi |Ami
:|3x
will to carry on with the show show The show must go
on______
(on with the show)
CHORDS:
E A D G B e
Ami 0 0 2 2 1 0
Asus2 0 0 2 2 0 0
Asus4 0 0 2 2 3 0
F 1 3 3 2 1 1
F5- 0 0 3 2 0 1
F6 x x 3 2 3 1
F# 2 4 4 3 2 2
F#sus4 2 4 4 4 2 2
Eb 6 6 8 8 8 6
Esus4 0 2 2 2 0 0
E 0 2 2 1 0 0
Emi5- 0 1 2 0 0 0
Emi7 0 2 2 0 3 0
Emi6 0 2 2 0 2 0
D 0 0 0 2 3 2
Dmi 0 0 0 2 3 1
Dmi7 0 0 0 2 1 1
Dmi6 0 0 0 2 0 1
Dmi5- 0 0 0 1 3 1
Hmi 2 2 4 4 2 2
G 3 2 0 0 0 3
G9 3 5 3 4 3 5
Gmi 3 5 5 3 3 3




Ваше мнение



Капча