From alt.guitar.tab Thu Jul 28 19:56:16 1994
From: [email protected] (Sergey Shulubin)
Date: 28 Jul 1994 17:17:15 GMT
Newsgroups: alt.guitar.tab
Subject: TAB: Queen - Tenement Funster intro

I play it like this:

|-----0---------0---------0---------0---------0-----------------------------
|----0-0-------1-1-------0-0-------1-1-------0-0----------------------------
|---0---0-----2---2-----0---0-----2---2-----0---0---------------------------
|--2-----2---2-----2---2-----2---2-----2---2-----0--------------------------
0-------------------0-------------------------------------------
|-0-------------------0-------------------0---------------------------------

|-----3---------1---------0---------3---------------------------------------
|----0-0-------0-0-------1-1-------4-4--------------------------------------
|---0---0-----0---0-----0---0-----3---3-------------------------------------
|--0-----0---0-----0---2-----2---5-----5------------------------------------
----------3---------6-------------------------------------------
|-3---------3---------------------------------------------------------------

----2---------2-------2-2-2-2-----------------------------------
|----3-3-------2-2-------1-1------1-1-1-1-----------------------------------
|---2---2-----2---2-----2---2-----2-2-2-2-----------------------------------
|--4-----4---4-----4---4-----0----0-0-0-0-----------------------------------
|-5---------4---------3-----------0-0-0-0-----------------------------------
----------------------------------------------------------------


--
| * * * | She`s a killer Queen |
| **** ******* **** | Gunpowder, gelatine, |
| [email protected] | Dynamite and a laser beam |
| ****Ready*Freddie**** | Guaranteed to blow your mind |


Ваше мнение



Капча