Queen: Son And Daughter
An early version of Brighton Rock solo
Live at the BBC

The rythm is not `regular` at several places.
----------------------------------------------------------|
----------------------------------------------------------|
----------------------------------------------------------|
------------------5-------------------------------5-------|
--5---5-5-5-5-5h7-----7-----------5---5---5-5-5h7-----7---|
|-0---0-0-x---------------------------0-0-5/7-------------------------|

---------------------------------------------------------------|
---------------------------------------------------------------|
------------------------------7---7---7-7----------------------|
--------------5---5-5-5/7-7h9-------------9p7-9p7-5b-----------|
|-7-7-----5---5---5-5-5h7------------------------------------------7-7-7v--|
|-----5/7------------------------------------------------------------------|

-----------------------------------------------------|
---------------------------------12------------------|
-------------------9---9-9-11b13------13r11p9----9--/|
--9---9-9-11---*-*----------------------------11-----|
|-/11---11-11----------------------------------------------------|
-----------------------------------------------------|

--------------------------------------------------------------------------------|
--------------------------------------------------------------------------------|
----------______----12b------------------------------------_______---12b--------|
|-------12---12h13p12-121212h14-------14-14-14----------12---12---12---121212h14-------14---|
|-12h14----------------------------------------12-12h14-------------------------------------|
--------------------------------------------------------------------------------|

--------------------------------------------------12---------------|
-----------------------------------------------------15p12---------|
-------------------------12b-----------12-14b16------------14b16---|
|-14----------12---12-12-12-12-12h14-------14----------------------------------|
|----12-12h14-----------------------------------12-----------------------------|
-------------------------------------------------------------------|

|----12------------------12-------------------------------------------------|
|-12----15p12---------12----15p12-14p12-13p12-13p12-------------------------|
--14b16---------------------------------15p14p12----12h14p12----|
-------------------------------------------------14----------14p|
----------------------------------------------------------------|
----------------------------------------------------------------|

-------------------------------------------------|
-------------------------------------------------|
--------------------12h14p12---------------------|
|p12h14p12h14p12----12----12-------------14-12h14p12----12---|
-----14----14----14----------------------14------|
-------------------------------------------------|

---------------------------------------------------------_______-------|
------------------------------15b17v---15-12-15p12h15p12-15p12---------|
--------------------------------------------------------------15p14p13-|
|-14---12-14-12--------------------------------------------------------------------|
----14-13-12-10------------x-------------------------------------------|
----------------12-10v-----x-------------------------------------------|

--12-15-b17vv----|
|-12-15-|-b17-b16-b17-b16-|----|-b17___0vvv----15----------------|
--|-0/-----------------------|
--|-/0-----------------------|
-----------------|
--|15 X----------------------|

|-15---12------------------------------------------------------------------------------|
|----------15--12--________------------------------------------------------------------|
-------15p14p12----14--12--------------------------------------------------|
----------------14---------14-12-------------------------------------12----|
---------------------------------14-------14--------10h12p10h12/14-----14-|
------------------------------------12-12--------12------------------------|

----------------------------------------------------------------|
----------------_________---------------------------------------|
---------------------12---12vv--2b3__r2-----0------------------|
----------12----12h14--14----------------------2-0--------------|
|-----10h12p10h12/14-----14------------------------------------2-1-0--------|
|-12-----------------------------------------------------------------3-0----|




Ваше мнение



Капча