From: Pinter Denes


Queen: Sleeping on the sidewalk
Bass-tab.

G--------|-----|---------|---------6-7--8-|
D----|-----6-7-8--9--|-0//-|-0//-----|-----6-7--------|
A|-----6-7-8--9------|-//0-|-//0-|-----6-7-8--9-------|
E|-7-7-----------|-7-7-----------|-----|-----|-7-7-----------|-7-7------------|
I was nothin`...

G|-----9--7-9--------|------11-9----------|
D-----|-----6-7-8--9--119--7-|
A|-7-7-5-4-3-|----7--------|-----6-7-8--9----|-9--9---------------|
E|-7-7---------|-7-7----------|-7-7-------------------|
I`ve been...

G--11-11----------|
D|-7-------------------|-----6-7-8--9-|----9--7-------|
A|--/7-5-|-----6-7-8--9--9------|-----6-7-8--9----|--------9-/7-5-|
E|-------|-7-7------------------|-7-7----------|-7-7----------|-7-7-----------|
So round the...

G-----------------------------|
D|-----9--7-------------|-----6-7-8--9----------------|
A|----------9-7-5--|-----6-7-8--9--------------------|
E|-7-7--------------|-7-7-----------|-7-7-----------|-7-7----7-7----7-7-7-----|


G|---9--7---------|-------9--7-9-----------|
D|--------9-7-5------|-----9--7--------|-----9--7-----|
A|-7--------------|-----7---------|----------9-7-5-|----------6-7-|
E-----|-7-7-----------|-7-7-------------|-7-7----------|
Sleepin on the...

G|-------11-11-9--9-----------------------|
D--------9--7-|-9--7----------------------|
A|-9--9-------------------|------9-/7-5-----|-----6-7-7h8-|-9-----------------|
E---------------7-5-|-7-7---------|----2-2-2---2-2-2--|


G-----------------------------|
D-----------------------------|
A|-7-7-7-7-7-7-7-7-|-7-7-7-7-7-7-7---|-----6-6-7-7-8--9--|-----6-6-9--9---11--|
E------------|-7-7---------------|-7-7----------------|
They took me...

G-----------------------------|
D|----6-6-9--9--6-6-|-----6-6-7-7-8--9-|------8-8-8-8-------------|
A|-7-7--------------|-7-7--------------|-9--9---------9--9--|-7-7-9--9--7-7-7-|
E-----------------------------|


G-----------------|
D---|-----6-7-8--9-|------0//------|------0//------|-----6-7-8--9-|
A|-----6-7-8--9----|------//0------|------//0---------|
E|-7-7----------|-7-7------------------|-7-7----------|
And i was...

G--------|-----9--7-----------|
D|-9--11-11-12-13-14-|----------9-/7-5-|---0/---|-----9--7--------|----0/-----|
A--------|-7-7-------------|---/0---|----------9-7-5-|----/0-----|
E--------------|--------|-7-7-------------|


G-----------------|
D|-------8-8-11-8-|---7-----------------|----6-7-8--9-|
A|-9--9-----------|-7---75---|----6-7-8--9--9--9-|----6-7-8--9---|
E-----|---------7-|-7-7---------------|-7-7---------|-7-7---------|


G|-----6-7-8--9------|--------|
D--------|---0/---|
A----|-----6-7-8--9--|---/0---|
E|-7-7-----------|-7-7-----------|--------|


G-------|---------6-7-8-|-------7---------|
D|-----6-7-8--9-----|-----6-7-------|-----8---7-5-|-----9--7------|
A----|-----6-7-8--9-----|-7-7---------|-7-7-------75-|
E|-7-7-----------|-7-7----------|-7-7-----------------|

---3---
G--------|----11-9------------|
D|-----9--7----------|---------9--7-5-|---7-----------|
A|----------9-7-5-|-----6-7-8---|-9--------------|-7---7-5-----|-----6-7-7h8-|
E|-7-7-------------|-7-7--------------|---------7-5-|-7-7---------|


G|----11-11-11----------------------------|
D-----------------------------|
A|-9-------------|-7-7-7-7-7-7-7-7-|-7-7-7-7-7-7-7---|------6-6--7-7--8--9----|
E----------------|-7-7--------------------|
Now they ...

G-----------------------------|
D------|----6-6-9--9--6-6-|----6-6-7-7-8--9-|-------8-8-8-8-------|
A|----6-6-9--9--11-|-7-7--------------|-7-7-------------|-9--9----------9--9--|
E|-7-7------------------------------------|


G-----------------|
D---------|-----6-7-8--9-|------0//-------|
A|-7-7-9--9--7-7-7-|-----6-7-8--9----|------//0------|-----6-7-9--|
E------|-7-7----------|-7-7----------|-----2-time----|-7-7--------|
Back to...

G---|-----9--7--------|-----8--7----------|
D---|----------9-7-5-|---------7-5-|----9--7-----|-----9--7------|
A---|-7-7-------------|-7-7---------|---------7-5-7--|
E|-7-7-9--10-11---------|-7-7---------|-7-7-----------|
Sleepin on the...

G|-------11-9--------|
D--9--|---7---------|---------|-------9--9--|
A|-9--9------------|-7---75-----|---6-7-8-|-9--11-------| ...he-he...
E------|---------7-5-|-7---------|

0// 0/ : slide down
//0 /0 : replay / : slide up
Transcribed by Pinter Denes `94.oct.
Corrected by -----||----- `95.feb.
([email protected])




Ваше мнение



Капча