Queen: Seven Seas Of Rhye
solo:
----------------------------------------------------|
--------------------21b23---r2221-18--------21b23---|
-----18--2018-----------------------20182018--------|
|--------18--20-------------20----------------------------------|
|18--20---------------------------------------------------------|
----------------------------------------------------|

----------------------------------------------------|
|-b23__r21p1821t23p21t23p21-------------------------------------|
---------------20b22__r201820182022__r20p18--18br---|
----------------------------------------------------|
----------------------------------------------------|
----------------------------------------------------|

-----21b23------18-------------------------19b21---|
--------------21--2118-----------------------------|
|-20p18----18br-------------------21201820182018---20----------|
|------20---------------------------------------18-------------|
---------------------------------------------------|
---------------------------------------------------|




Ваше мнение



Капча