ARTIST: Queen
TITLE: Put Out The Fire
ALBUM: Hot Space
TABBED BY: Martin Kelly
At one point, I made up my own appregios as I can't work out that ascending part in the solo. I'd suggest
up with one of your own as well, or if you could work it out and send it at the address at the bottom,
would help.
There are two guitars, one left, one right.
INTRO
E--2--------2-----------------------------------------------------------------------------|
B--3--------3-----------------------------------------------------------------------------|
G--2--------2-----------------------------------------------------------------------------|
D--0--------0-----------------------------------------------------------------------------|
A-----------------------------------------------------------------------------------------|
E-----------------------------------------------------------------------------------------|
Whereas the right would go:
E-------5----2----------------------------------------------------------------------------|
B-------3----3----------------------------------------------------------------------------|
G-------2----2----------------------------------------------------------------------------|
D-------0----0----------------------------------------------------------------------------|
A-----------------------------------------------------------------------------------------|
E-----------------------------------------------------------------------------------------|
VERSE [Both guitars]
repeat three times then play Play all this twice
E-------------------------------------------------------------------------------------------|
B--2--2-3-2-------------------------------2-2-0-2-------------------------------------------|
G--2--2-2-2-------------------------------2-2-0-2-------------------------------------------|
D--2--2-2-2-------------------------------2-2-0-2-------------------------------------------|
A--0--0-0-0-------------------------------0-0-0-0-------------------------------------------|
E-------------------------------------------------------------------------------------------|
BRIDGE 1
E--0------5/------0--------5/---------0----3-----------------------------------------------|
B--0--------------0-------------------0----0-----------------------------------------------|
G--1--------------1-------------------1----0-----------------------------------------------|
D--2--------------2-------------------2----0-----------------------------------------------|
A--2--------------2-------------------2----2-----------------------------------------------|
E--0--------------0-------------------0----3-----------------------------------------------|
left centre right centre
CHORUS [both guitars]
repeat once repeat once
E------2-----------------3--3---------2-----------------3--------2------------------------|
B--2---3---2-------------0--0-----2---3---2-------------0--------3------------------------|
G--2---2---2-------------0--0-----2---2---2-------------0--------2------------------------|
D--2---0---2-------------0--0-----2---0---2-------------0--------0------------------------|
A--0-------0-------------2--2-----0-------0-------------2---------------------------------|
E------------------------3--3---------------------------3---------------------------------|
SOLO [right]
The left plays the verse more or less. This solo is gonna be difficult
HELL OF A LOT OF PICKSCRAPING THEN
E--12-------------------------------------21[22]---12-12-12-12-12-12-12---20-----15[17]---|
B-----------------------------------------------------------------------------------------|
G-----------------------------------------------------------------------------------------|
D-----------------------------------------------------------------------------------------|
A-----------------------------------------------------------------------------------------|
E-----------------------------------------------------------------------------------------|
E--17-16-15-14-13-12-------------------------------------------------------17---15--------|
B---------------------10-8---10---10-13-10-13-10-13-10-13-10-13~~~~--15-17---------17-15--|
G--------------------------9--------------------------------------------------------------|
D-----------------------------------------------------------------------------------------|
A-----------------------------------------------------------------------------------------|
E-----------------------------------------------------------------------------------------|
E-----------------------------------------------------------------------------------------|
B--------------------------------------12-13-15-17~~~~~~~~~~------------------------------|
G--16-14-12----------------------12-14----------------------------------------------------|
D-----------14-12----------12-14----------------------------------------------------------|
A-----------------14-12-14----------------------------------------------------------------|
E-----------------------------------------------------------------------------------------|
BRIDGE 2
repeat once
E--2--2----0------------3-----------------------------------------------------------------|
B--3--3----2------------0-----------------------------------------------------------------|
G--2--2----2------------0-----------------------------------------------------------------|
D----------2------------0-----------------------------------------------------------------|
A----------0------------2-----------------------------------------------------------------|
E-----------------------3-----------------------------------------------------------------|
ENDING
E-----------------------------------------------------------------------------------------|
B--2---0-2-----3-2------------------------------------------------------------------------|
G--2---0-2-----2-2------------------------------------------------------------------------|
D--2---0-2-----2-2------------------------------------------------------------------------|
A--0---0-0-----0-0------------------------------------------------------------------------|
E-----------------------------------------------------------------------------------------|
Well that's the best I can do.
For a list of easy tabs contact [email protected]




Ваше мнение



Капча