Princes of the Universe
/=slide
p=pull off
solo
e|------------------------------------------------------------------------|
B|------not exact------------not exact------------------------------------|
G|------------------------------------------------------------------------|
D|----00000000000000-3-3p0-0-000000000-3-00-5-00-6-00-7-00000-3-0-5p3p0-3-|
A|-3/5--------------------------------------------------------------------|
E|------------------------------------------------------------------------|
e|---------------------------------------------------------------------|
B|---------------------------------------------------------------------|
G|---------------------------------------------------------------------|
D|---------------0000-3-000-5-000-6-000-7-000-9-000-10-000-11-000------|
A|-5-4-3----------------------------------------------------------11/1-|
E|-------5-4-3-1-------------------------------------------------------|
Transcripted By Chris Joyce 2001
e-mail me [email protected]




Ваше мнение



Капча