this is a great piece for the guitar!!!
TAB EXPLANATION:
: Hold the chord or note and slide it to the top of the neck
x:play deadened strings

e----------------------------------------------------------
b----------------------------------------x-----------------
g-7----------6-----7-----7-------------x----4-----5----5-
d-7----------7-----7-----7-------------x----5-----5----5-
a-5----------4-----5-----5------------------2-----3----3-
e----------------------------------------------------------

e-----------------------------------------------------
b-x---------------------------------------------------
g-x----4-----5----5----------6-----7-----6------------
d-x----5-----5----5----------7-----7-----7---------7-
a------2-----3----3----------4-----5-----4---------5-
e-----------------------------------------------------

e----------------------------------------------------------
b----------------------------------------------------------
g-x-------------------------------x------------------------
d-x----7-----7----7--------------x-----5-----5----5-----5-
a------4-----5----5--------------------2-----3----3-----2-
e----------------------------------------------------------

e---------------------------------------------------------
b----------------------------------0----------------------
g----------------------------------0----------------x-----
d--5------5-----5--------7----7---------7----------x---7-
a--2------3-----3--------4----5---------5--------------4-
e---------------------------------------------------------

e-----------------------------------------------------------
b-----------------------------------------------------------
g---------------------x-------------------------------------
d-7----7/-------------x----5----5----5-----5----5--------5--
a-5----5/------------------2----3----3-----2----2--------3--
e-----------------------------------------------------------

e-----------------------------------------------
b-----------------------------------------------
g-----------------------------------------------
d--5-----7----7----7/---------------------------
a--3-----4----5----5/---------------------------
e-----------------------------------------------




Ваше мнение



Капча