From: Mark Divall

Now I`m Here.

by

Brian May

Great rock `n` roll stuff...

The muted bit is D as follows...

------------------------|
|-3-3-3-3...3---------------------3-|
|-2-2-2-2...2-2...2-2...2-2...2-2-2-|
|-0-0-0-0...0-0...0-0...0-0...0-0-0-|
--3...3-2...2-1...1-3---|
------------------------|

Then..

--------------------|
|-2---3---2---3---4---5---4---5-|
|-2---2---2---2---4---4---4---4-|
|-2---2---2---2---4---4---4---4-|
|-0---0---0---0---2---2---2---2-|
--------------------|
I`m just a...

Then the main riff.

--------------------------------------------------------------|
-------------3-3------------------------9-9---9-9---9-----7-5-|
-------------2-2-2----------------------9-9---9-9---9-----7-6-|
|---------2---4--2-----------2--4-4----------0-2----9-9---9-9---9-----7-7-|
--2--0--------------2-2-4--0-1-2--------7-7---7-7---7---------|
|-0---3-4---0------3-4-0------------2------------0------0-----0---0-0-----|

Hope you enjoy it.

Mark Divall.

[email protected]







----------
X-Sun-Data-Type: default
X-Sun-Data-Description: default
X-Sun-Data-Name: now_im_here.tab
X-Sun-Content-Lines: 48

Now I`m Here.

by

Brian May

Great rock `n` roll stuff...

The muted bit is D as follows...

------------------------|
|-3-3-3-3...3---------------------3-|
|-2-2-2-2...2-2...2-2...2-2...2-2-2-|
|-0-0-0-0...0-0...0-0...0-0...0-0-0-|
--3...3-2...2-1...1-3---|
------------------------|

Then..

--------------------|
|-2---3---2---3---4---5---4---5-|
|-2---2---2---2---4---4---4---4-|
|-2---2---2---2---4---4---4---4-|
|-0---0---0---0---2---2---2---2-|
--------------------|
I`m just a...

Then the main riff.

--------------------------------------------------------------|
-------------3-3------------------------9-9---9-9---9-----7-5-|
-------------2-2-2----------------------9-9---9-9---9-----7-6-|
|---------2---4--2-----------2--4-4----------0-2----9-9---9-9---9-----7-7-|
--2--0--------------2-2-4--0-1-2--------7-7---7-7---7---------|
|-0---3-4---0------3-4-0------------2------------0------0-----0---0-0-----|

Hope you enjoy it.

Mark Divall.

[email protected]




Ваше мнение



Капча