This Chord is repeated for several bars. Slightly mute the strings and use slight distortion.
D Repeat
--- ||-----------------------------------------------------
3--|| 3-3-3-3-3-3-3-3-3-3-3-3-3-3-3--------------
2--||-2-2-2-2-2-2-2-2-2-2-2-2-2-2-2----------------
0--||-0-0-0-0-0-0-0-0-0-0-0-0-0-0-0----------------
--- ||-----------------------------------------------------
--- ||-----------------------------------------------------
-----------------------------------------------------------
-----------------------------------------------------------
-----------------------------------------------------------
0-X------------------X-----------------------------------
0-3-3-3-3-3-3-3-0-2-2-2-2-2-2-2-0-1-1-1-1-1-1-1-1
-----------------------------------------------------------
A D B
---------- ||- |------------------------------------------
---------- ||- |------------------------------------------
---------- ||2|-2-2-2-7-7-7-2-2-2-7-7-7-4-4-4------
---------- ||2|-2-2-2-7-7-7-2-2-2-7-7-7-4-4-4------
-1-1-1-1-||0|-0-0-0-5-5-5-0-0-0-5-5-5-2-2-2------
---------- ||- |------------------------------------------
E
-----------------|-----------------------------------------
-----------------|-------------------------------3-3------
-9-9-9-4-4-4-9|--------------4-4-2-----------2-2-2---
/9-9-9\4-4-4/ 9|----------2---4-4-2-----------0-0-2---
-7-7-7-2-2-2-7|2-------- 2---2-2-0--------2------0----
-----------------|0--3--4----0--------3--4--0-----------
-------------------------------------------------------|
-------------------------------------------------------|
4-4----------------------------------------9--9-7----|
4-4-4-----------0--2------2--------2-----9--9-7--7-|
2-2-4--0--1--2--------2--2--------2-----7--7-5--7-|
-----2------------------0----0--0-----0------------5-|
This is the first tab I have done on the internet, but it is the 100% correct way, so far.




Ваше мнение



Капча