Queen: Mustapha

two solo-fills
|----------------------------|
|--------------------____----|
|----------------7-8-10p8----|
|-----------9-10----------9--|
|-7-8-10-11------------------|
|----------------------------|

|---------------------------------------------------|
|----------13-14-13-16r14-13---___________________--|
|-11-13-14------------------14-13h14p13p11h13p11----|
|-----------------------------------------------12--|
|---------------------------------------------------|
|---------------------------------------------------|
Transcribed by Pinter Denes




Ваше мнение



Капча