Date: Sat, 3 Aug 1996 17:57:27 +0300
From: Yotam Shkedy
Mother Love by Queen
By:Hezi Raz & Yotam "Kurgan" Shkedy ([email protected])
Intro:
Gm
e|-----------------| |-------------------|------------------|
B|-----------------| / |-------------------|------------------|
G|-----------------| O / |-------------------|---------5--------|
D|---8---7---7--\5-| / |---8---7----7----5-|-8-5---7---7------|
A|/5---5-----------| / O |/5---5-------------|-----5-------8/10-|
E|---------8---8---| / |-------------------|------------------|
Eb Cm Gm~
Verse:
Gm
I don't want to sleep with you...
Eb
All I want is the comfort and care
Cm Gm
just to know that my woman gives me sweet - Mother Love
Chorus:
Eb Cm F Bb
I've walked too long in this lonely lane. I've Had enough of this same
old
Dm Gm C
game. I'm a man of the world and they say I'm strong. But my heart is heavy,
D
and my hope is gone.
Eb Cm Ebm ?
Out in the city, in the cold world outside. I don't want pity, just a
safe
D
place to hide. Mama please, let me back inside.
Riff:
Gm
e|--------------------------------------|
B|--------------------------------------|
G|--------------------------------------|
D|---8---7----7----5----8----7----7----5|
A|-5---5--------------------------------|
E|----------8-------------------8-------|
Verse:
Same chords as before.
Solo
Verse:
Same chords as before.
-----------------------------------------------------------------------------
That's it. Now for the Chords:
Gm Eb Cm F Bb Dm C D Ebm
e|--3-------6------3------1------1--------5--------3-------5------6----|
B|--3-------8------4------1------3--------6--------5-------7------7----|
G|--3-------8------5------2------3--------7--------5-------7------8----|
D|--5-------8------5------3------3--------7--------5-------7------8----|
A|--5-------6------3------3------1--------5--------3-------5------6----|
E|--3-------6------3------1------1--------5--------3-------5------6----|
If you like/hate it, able to find out what '?' is or find out the solo
then
please E-mail me at:
[email protected]
I Have Something To Say :It's better to burn out then to fade away




Ваше мнение



Капча