Queen: Modern Times Rock and Roll
Album: QUEEN I

solo
|----------------15-15-------15-15-------15-15---------------------|
|-18b20----18b20-------18b20-------18b20-------18b20-18--18---15---|
|------------------------------------------------------------------|
|------------------------------------------------------------------|
|------------------------------------------------------------------|
|------------------------------------------------------------------|

|-18p15----17p15----18p15----15-15-15-|------15-15-|----|
|-------15-------15-------15----------|-18b20------|----|
|-------------------------------------|------------|-0/-|
|-------------------------------------|------------|-/0-|
|-------------------------------------|------------|----|
|-------------------------------------|------------| 3X |

|----------------------------------------------------------------------------|
|-18-15----15----------18b20---b19b20---18-16--------------------------------|
|-------18----18-17-15------------------------17-15--------------------------|
|---------------------------------------------------17-16-15-13----15-13-----|
|---------------------------------------------------------------15-------15__|
|----------------------------------------------------------------------------|

|--------------------------------------------------------20b22vv--------|
|---------------------------------------18-20b22---20-18----------------|
|----------------------17-19p17---17-19---------------------------------|
|---------15----15-/19---------19--------------------------------0\\tr//|
|__\9_/17----17---------------------------------------------------------|
|-----------------------------------------------------------------------|
Transcribed by Pinter Denes




Ваше мнение



Капча