Queen: The Millionaire Waltz
1st solo
|-----------------------------------------------------------------------------|
|----------------------------------5-6-----8-10--------8-10-11------13-15-----|
|-13__\12__\10__\5-----6h8\5-----7--------------10------------------------15--|
|-----------------------------------------------------------------------------|
|-----------------------------------------------------------------------------|
|-----------------------------------------------------------------------------|
|-----------------------------------------------------------------------------|
|---------------------------------------------13---13-------------------------|
|-15--------------------------13----------------------15-14-15-12-------------|
|------13---------------12-15-----------12-15---------------------13----------|
|---------15-13-12-13--------------*-13------------------------------15-13----|
|--------------------------------------------------------------------------15-|
2nd solo
|---------------------------------------------------------------|
|-4--3434---3434/13-1313---11h13p11-9h11p9-8h9p8-6h8p6----------|
|------------------------------------------------------8---5-6--|
|---------------------------------------------------------------|
|---------------------------------------------------------------|
|---------------------------------------------------------------|
|-------------------------------------------|
|-2--1212---1212/11-1111---9--8--6--5-------|
|---------------------------------------5-6-|
|-------------------------------------------|
|-------------------------------------------|
|-------------------------------------------|
|--------------------------------------13b15-13...|
|-4--3434---3434/13-1313---1413--131613-----------|
|------------------------------16-----------------|
|-------------------------------------------------|
|-------------------------------------------------|
|-------------------------------------------------|
Transcribed by Pinter Denes




Ваше мнение



Капча