Queen: March Of The Black Queen
two solos
1'37"
|------------------------------------------------------------------|
|--------------------------------------------------5---------------|
|-7-b9-7-b9-7-9r7-5--b9-7-9r7-5---9r7-5-7-6-7-6-7----7-5-----4-5---|
|--------------------------------------------------------7-7-------|
|------------------------------------------------------------------|
|------------------------------------------------------------------|
---3--- ---3--- ----4----
|----------------------------------------------------|
|-12b13-13r12p10-12p10---10--------------------------|
|---------------------12----12-10h12p10--10----------|
|--------------------------------------12---12-11-10-|
|----------------------------------------------------|
|----------------------------------------------------|
|---------------------------|
|---------------------------|
|---------------------------|
|-9----9--------------------|
|--------9------------------|
|------------10---11\--6-7--|
5'6"
|--------------------------------------------------------|
|-8b10___- b10-b9-b10-b9-b10vv----b9-b10-b9-b10-b9-b10vv-|
|--------------------------------------------------------|
|--------------------------------------------------------|
|--------------------------------------------------------|
|--------------------------------------------------------|
|-------------------------------------------------------|
|-10r857-5----------------------------------------------|
|-------7-875-5------------------7-5b-------------------|
|------------7-757------5-5----57-7-----757575----------|
|---------------------57-7--------------------5353------|
|-------------------------------------------------535---|
Transcribed by Pinter Denes




Ваше мнение



Капча