QUEEN : LOVE OF MY LIFE written by F.M.
LIVE KILLERS version
12 stringed guitar
|---5-5-5-5-5-5-5--3-3-3-3-3-3-3-3---1-1-1-1-1-1-1-|
|---7-7-7-7-7-7-7--5-5-5-5-3-3-3-3---1-1-1-1-1-1-1-|
|---7*7*7*7*7*7*7*-5*5*5*5*4*4*4*4*--2*2*2*2*2*2*2*|
|-0--------------------------------0---------------|
|--------------------------------------------------|
|--------------------------------------------------|
|---3-3-3-3-3-3-3---1-1-1-1-1-1-1--------|
|---3-3-3-3-3-3-3---1-1-1-1-1-1-1--------|
|---4*4*4*4*4*4*4*--2*2*2*2*2*2*2*-------|
|-0---------------0------------------|
|----------------------------------------|
|----------------------------------------|
|-------2---------|-------2---------|-0---0-------0---|-----------------|
|-3-2-3-------3---|-3-2-3-------3---|-0---0---x-3-----|-2---3---5--\2---|
|-----------2-----|---------------4*|-----------0-----|-----------------|
|-0---------------|-----------4-----|---2---2---------|---2-4-2-5--\2*--|
|---------------4-|-2---------------|-----------------|-0---------0---0-|
|-----------------|-----------------|-0---------------|-----------------|
|-------2---------|-2-----2---------|-----------------|-----------------|
|-3-2-3-----3-----|-3-2-3-----3-----|---3-5-3---3-5-3-|-0---------------|
|-2*----------2*--|-4*------------0*|-4*------2*------|-1---2-2-4---7\--|
|-0---------------|---------4*------|-----------------|-2-2-4---6---9\--|
|---------------4-|-2-----------0---|-----------------|-----------7-----|
|-----------------|-----------------|-3-------2-------|-0---------------|
|-----------------|-----5---4---2---|---------2-------|-----------------|
|-2-0-----2---2---|-----2---2---2---|-------------3---|-----------------|
|-----2*--2*--2*--|-----------------|-4---4---4*----4-|-1---2---4---1---|
|-------2---2-----|---4*--4*--4---4-|---4---4---4-----|-2---4---6---2---|
|-0---------------|-----------------|-2---------------|-2-----------2---|
|---------------4-|-2---------------|-----------------|---0-------------|
|-------3---3-------------2---------|-2-----2---|
|-0-----2---2---------3-------3-----|-3-----2---|
|---2---2---2-------2*--2*--2*------|-4-----2---|
|-----2-----------0-----------------|-4-----4---|
|-0-----0---0-----------------------|-2-----4---|
|-----------------------------------|-------2---|
|-----3-3---2-----3---2---2-------0-----0---0---------|
|-----3-3-----3---3---3---3---------3-2---2-------3---|
|-----4-4-------2-0---2---4-----------------2*--2*----|
|---5*------0-----0---0---4-----2*------------0-----0-|
|-----------------2-------2-----------0---------------|
|-3---------------3-----------0-----------------------|
|-10---9----7/9--5----|-----------------|-0-----------------|
|-12---10---8/10-7----|---3-5-3---3-5-3-|-0-------------(7)-|
|---------------------|-4*------2*------|-1---2-/-4-/-7-----|
|----0----0--------7/-|-----------------|-2---4-/-6-/-9-----|
|---------------------|-----------------|-2---------7-------|
|---------------------|-3-------2-------|-0-0---0-----------|

|-----------------|-----4---4---4---|-------------2---|-----------------|
|-2-0-----2-------|-----2---2---2---|-------3-------3-|-----------------|
|-----2*----2*----|-----2*--2*--2*--|-4---4---4-4*----|-1---2---4---7\--|
|-------2---------|---4*--4*--4*--4*|---4-------------|-2---4---6---9\--|
|-0-----------0---|-----------------|-2---------------|-2---------------|
|---------------4-|-2---------------|-----------------|-0---------------|
|-0-----3---0----|-------2--2-----|
|---0---2---2----|-----3---3------|
|-----2-2---0----|---2*-----2*----|
|----------------|-0--------0-----|
|-0-----0---0----|----------------|
|----------------|----------------|...
|-----3-------0---------0---2---|-2---2-----------|-2---3-/-5---0-----------|
|-------2---2-------3-----------|-3---2---------3-|-3---5-/-7---2-----------|
|---1*----2-------2*--2*--2---2-|-4---2---------4-|-------------3*----------|
|---------------0---------------|-4---4---5---5---|---0---0---0-------------|
|-------0-----------------------|-2---4-----5-----|-------------------------|
|-0-----------------------------|-----2---3-------|-------------2-----------|
|---2---------2-----|-2---2---




Ваше мнение



Капча