Подбор не мой, но мне очень понравился,
будет возможность добавлю mp3.

PINTER Denes ([email protected])

intro
E-|---10-10-10-10-10-10-10-8-8-8-8-7-7-7-7---5-5-5-5-5-5-5-|
B-|---10-10-10-10-10-10-10-8-8-8-8-8-8-8-8---6-6-6-6-6-6-6-|
G-|---11-11-11-11-11-11-11-9-9-9-9-7-7-7-7---5-5-5-5-5-5-5-|
D-|-0--------------------------------------0---------------|
A----------------------------------------------|
E----------------------------------------------|

E-|---7-7-7-7-7-7-7---5-5-5-5-5-5-5------|
B-|---8-8-8-8-8-8-8---6-6-6-6-6-6-6------|
G-|---7-7-7-7-7-7-7---5-5-5-5-5-5-5------|
D-|-0---------------0----------------|
A----------------------------|
E----------------------------|

D Bm Em A
E-|-------2---------|-------2-----------------0---|
B-|-3-2-3-------3---|-3-2-3-------3---|-8---------8-----|-2---3---5--2---|
G-2---------4-|-9---9---9---7-9-|-2---------------|
D-|-0---------------4-----------|---2-4-2-5------|
A-----4-|-2---------------|-7-7---7---------|-0---------0---0-|
E-------------------------|
D Bm G D
E-|-5-----------5---|--7----------------|-7-------5-------|
B-|-------7---------|---------7-7-------|---3-5-3---3-5-3-|
G-|-7-6-7---7-7-----|--7----7-----7--




Ваше мнение



Капча