Queen: Let Me Live

Solo
-----------------------------------------|
-----------------------------------------|
--------12-------------------------------|
|-12b14-----12b14--------12b14_r12p10-12-------------|
-------------------------------12--(/15)-|
-----------------------------------------|

----------------------------------15______---15____---|
--------------13----15----15b17_____---b17_____-b17---|
--------12___----12----12-----------------------------|
|-------10h12-12/14----14-----------------------------------------|
|-10h12-----------------------------------------------------------|
------------------------------------------------------|

-----x-18b20--------------------------------17--------------------|
|-b17r__15p13--------------15b17__r15p13-15vv3------17----17-20-17-------18v-|
-14---------------------------------4/18----------------18--------|
-----------------------------------------------------------19-----|
------------------------------------------------------------------|
------------------------------------------------------------------|

----------------------------------------13----17----13----|
---------22__r-20-17vv3-------------13----13----13----13-|
|-b21__r19----16-19-----------------2/4-15-7/14----------------------|
|----------17---------------------------------------------------------|
----------------------------------------------------------|
----------------------------------------------------------|
________ _______ four gtrs.
|----------16----20p16----20p16---|-13b15-13b15----|----|e-20b22----20--|
|-------16----16------16-------16-|-17b19-17b19----|----|B-22b23----22--|
|-15/17---------------------------|-17b19-17b19----|-0/-|G-22b24----22--|
----------------------|-12b14-12b14----|-/0-|G-22-------21--|
---------------------------|--------|
---------------------------|--------|




Ваше мнение



Капча