Queen: Let Me Entertain You
Mercury/1978/Jazz

two guitars (both in the middle)
|------------------------------------------------------------------------------|
|------------------------------------------------------------------------------|
|-4---4p0---0-4---4-----0-4---4-*---0-4---4-----0-4---4------(0)-(0)-----------|
|-2---2p0-----2---2p0-----2---2p0-----2---2p0---0-2---2p0---0-2---2p0-----5----|
|---------2-----------2p0---------2-----------2p0---------2p0---------2p0-5----|
|-------------------------------------------------------------------------3----|

guitars turn panned
|-----------------------------------------------------------------------------------------|
|-----------------------------------3---3-3-3-3-------------------------------------------|
|-4-4---4-4---4-4-------0-4-4---4---0---0-0-0-0-4-----4-4---4-4-2-----0-------------------|
|-2-2p0-2-2p0-2-2p0-------2-2p0-2p0-------------2---0-2-2p0-2-2-0-----0-2p0---------------|
|--------------------2----------------------------------------------2-------2p0-----------|
|-------------------------------------------------------------------------------3-->>>>>>-3--2-|
|---------------------------------------------------------------------------------------------------|

riff C:
|------------------------------------------------|
|------------------------------------------------|
|------------------------------------------------|
|--------0--2-4---5--4--4-----9-----------------|
|-2---3---------------2--2-----7-----------------|
|------------------------------0-------




Ваше мнение



Капча