Queen: Lazing On A Sunday Afternoon

guitar solo:
middle
|-3//17---17-16---17-14-----------------------------/17---16-14---16----------------------------------*
--------------14-14--------------------------------------17---14-15-16-17---16-15-17-14---*
--------------------16-14-16b18v----------------------------------------------------------*
------------------------------------------------------------------------------------------*
------------------------------------------------------------------------------------------*
------------------------------------------------------------------------------------------*
|left
------------------------------------------------------------------------------------------|
|-2///314---14-13---14-10---10-10-----------------7//14---14------14----------------------------------|
-----------------------------------(0)-----------14--------------------14---13-12-14-11---|
----------------------12-11-12b14------------------------14---14-14-14--------------------|
------------------------------------------------------------------------------------------|
------------------------------------------------------------------------------------------|
|right
------------------------------------------------------------------------------------------|
|-2//17---17-16---17-14---14-14-------------------8//17---17-14---17---------------14---13-12-14-11---|
---------------------------------------------------------14---14-16-17--------------------|
--------------------16-14-18b19v----------------------------------------------------------|
------------------------------------------------------------------------------------------|
------------------------------------------------------------------------------------------|

*-----------------------------------------------------------------------|
*-17b19---17-15---14----------------------------------------------------|
*--------------------16br---14-16b17---16-14h16p14----------------------|
*-------------------------------------------------16p14---14-14----16---|
*---------------------------------------------------------------16------|
*-----------------------------------------------------------------------|

middle
---------------------------------------------------|
-----------------------------------------17///22---|
-------14-13h14p13------16b18---16-14--------------|
|----------14-16-----------------14----------------------------|
|-16-17--------------------------------------------------------|
---------------------------------------------------|
|left
-----------------------------|
-----------------------------|
-----11-9-----11b13---11-9---|
|---------11-12---------9----------------|
|-11-12----------------------------------|
-----------------------------|
|right
-----------------------------------|
-----------------------------------|
-----------------------------------|
----11-9h11p9------12b14---12-11---|
|-8-9---11-12---------------11-----------------|
-----------------------------------|




Ваше мнение



Капча