Date: Fri, 1 Sep 1995 16:51:31 +0200
From: PINTER Denes
Subject: QUEEN: jealousy.btab

QUEEN : Jeaulosy
bass-tablature

-----------------------11-------11/14--------------------------|
|-------10-12-13---------------9------13-12--------------------------------|
|-8------------------8-----------------------------------------------------|
--------------------------------------3-----1-----5--5--5--5---|

-------------------------------------5-5--3-----3------|
|-8-6-5------------------10----5--------5-4-3----------------------|
|-------8-6-----8h10-------------5---------------------------------|
---------8-------------3-------------------------------|

|-3/15--15--15--15---13(6)-----8---8---8---6-6----|
------------------8-----------8--------|
--------------6------------------------|
------------------------------------4--|

-------------------------3----|
------------------------------|
|---------3---3-1----6---5---3---1----1---|
|-4-3----3--------------------------------|

|-------7/12--12(3)-------------------7----------------9------------------10-|
-------------------------------7-8--5--7-8------------------------|
|-6--5------------------------------------------------------3-1---------------|
--------2---2--2-2--3/135--------------------------3-/-6-8/9-----|

|-9/10---17-19-20----20/17------------19146----11-------1411--|
----------------19--17------------------13-12--------|
-----------------------------------------------------|
-----------------------------------------------------|

------------------------------------------5-3---3-----3--3--3--3--|
|-8-6-5--------------------10---5-------5---5-4-3---3-----------3-------------|
|-------8-6---6---8h10------------5-------------------------------------------|
-----------8------------3-----------------------------------------|

----8-------------------------------------|
-------8-----8----------------------------|
|-6---6---6-6--------6-----6-----------------3---3-1--|
-----------------9-8-4---4-3---3----------|

-----------------------|
-----------------------|
|-1-6----5----3----1----1/6----65--|
-----------------------|

|-7/12--12-12-12-12-12---------------------------------7/12--12--12---/19----|
---------------------------------------------------------------20|
-----------------10-8-6-5--5-3-----------5------------------------|
-----------3--6----------------5-2-3---3--------------------------|

-------7---------------9-------------10----/12----/15-----/18/19--|
-----------7/8----7-8----------8-10-------------------------------|
|-9---------------------------------------------------------------------------|
|---10-2-3--x-x-----------3/----------3--------------------------------------|
transcribed by P.D.
[email protected]
1995 22 august




Ваше мнение



Капча