Queen: It`s hard life
solo
---------------------------------------------------------------|
---------------------------------------------------------------|
|------15b17-----17_r15p13-15-12-----12b13---12b13------13r12p10-12-8------|
|-13-----------------------------13--|-13--12h13----------------------------------10---|
---------------------------------------------------------------|
---------------------------------------------------------------|

--------------10---11---13_r-11----------|
|-----11b13__r11-/-13-----------------------11___/16-|
|-8-8-15b17__r15-/-17--------------------------------|
-----------------------------------------|
-----------------------------------------|
-----------------------------------------|

|-15---15b_16---15b16rbrb-15/16-16b18----16--15----------18b_20---18-18------|
-------------------------------------18--16--18b_20---18-18------|
---------------------------------------------19b_20---19-19------|
-----------------------------------------------------------------|
-----------------------------------------------------------------|
-----------------------------------------------------------------|




Ваше мнение



Капча