Этот проигрыш гитарист Queen´а Брайан Мэй играл, когда заканчивалась первая часть песни.
Проигрыш создан в стиле фламенко играется в песне дважды:
1й раз - clean acoustic
2й раз - distortion
Можно и с другими эффектами. Хроматический ход на шестой струне нужно делать медиатором
очень быстро. В принципе к проигрышу можно сочинить и свое соло, но потребуется попадать
в такт соло- гитаристу. Аккорды самой песни приблизительно такие-C,D,F,Ddim. Лучше, если
получается, играть медиатором!!!
E-55--------7-8-7-10-8-7-5
H-5-5---------------------
G-5--5--------------------
D-7---7-------------------
A-7----7------------------
E-5-----5-----------------
E-33--------5-7-5-8-7-5-3-
H-3-3---------------------
G-4--4--------------------
D-5---5-------------------
A-5----5------------------
E-3-----3-----------------
E-11-------3-5-3-7-5-3-1--
H-1-1--------------------
G-2--2--------------------
D-3---3-------------------
A-3----3------------------
E-1-----1-----------------
E-00--------------00----------------------------
H-0-0-------------0-0---------------------------
G-1--1------2-2-2-1--1------2-2-2-1-------------
D-2---2-----3-3-3-2---2-----3-3-3-2-------------
A-2----2----3-3-3-2----2----3-3-3-2-------------
E-0-----0---0-0-0-0-----0---0-0-0-0--0-1-2-3-4-5
E-55--------7-8-7-10-8-7-5
H-5-5---------------------
G-5--5--------------------
D-7---7-------------------
A-7----7------------------
E-5-----5-----------------
E-33--------5-7-5-8-7-5-3-
H-3-3---------------------
G-4--4--------------------
D-5---5-------------------
A-5----5------------------
E-3-----3-----------------
E-11-------3-5-3-7-5-3-1--
H-1-1--------------------
G-2--2--------------------
D-3---3-------------------
A-3----3------------------
E-1-----1-----------------
E-00--------------00----------------------------
H-0-0-------------0-0---------------------------
G-1--1------2-2-2-1--1------2-2-2-1-------------
D-2---2-----3-3-3-2---2-----3-3-3-2-------------
A-2----2----3-3-3-2----2----3-3-3-2-------------
E-0-----0---0-0-0-0-----0---0-0-0-0--0-1-2-3-4-5




Ваше мнение



Капча