Queen
Headlong
submitted by ct
more guitars arr. for one
|----------------------------|
|----------------------------|
|----------------------------|
|----------------------------|
|-5===--2-3-----/5---3-------|
D-------2-3-----/5---3-0-----|
|-----------------------------------------------------------------|
|------------------------------------------------->solo-fill------|
|-*-------*-------*-------*-------*-------*-------*-------*-------|
|-----------------------------------------------------------------|
|-0---------------------------------------------------------------|
|-0---0-0-0-0-0-0-0-0-0-0-0-0-0-0-0-0-0-0-0-0-0-0-0-0-0-0-0-0-0-0-|
|--------------------------|
|--------------------------|
|-*-------*-------*---***--|
|--------------------------|
|-------2-3---5------------|
|-0-0-0-2-3---5---0--------|
small solo fill
|-------------------------------------------------------|
|-13b15__r13-10-------10b12__r10p8----------------------|
|---------------12---------------------10b12__r10-------|
|------------------12---------------10------------10----|
|-------------------------------------------------------|
|-------------------------------------------------------|
solo fill
|---10-10-10-10-10-10-10-13b---10--10-------------|
|---10-10-10-10-10-10-10-13b-----13--13b15rbr13---|
|-------------------------------------------------|
|-*----------*-----------*-----------*------------|
|-------------------------------------------------|
|-------------------------------------------------|
|---------|--|----------------------------------------------------------------|
|---------|--|--*----------*-----*----*---*----------*----*----*----*---------|
|---------|0/|------------------------------------------------------12--------|
|---------|/0|-/12---10----------/12------12---12-------------------12---12---|
|---------|--|-/12---10----------/12------12---12-------------------10---12---|
|-0-0-0-0-|3X|-/12---10----------/12------12---12------------------------12---|
C5 G5
|---------------------------------|
|---------------------------------|
|-*-------*-------*-------*-------|
|---------------------------------|
|---------------------------------|
|-0---0-0-0-0-0-0-0-0-0-0-0-0-0-0-|
|---------------------------------------------------------------------|
|---------------------------------------------------------------------|
|---------------------------------------------------------------------|
|---------------------------------------------------------------------|
|-2/3-5-2/3-5-2/3-0-2/3-5-2/3-5-2/3-5-2/3-5---------0-----------------|
|-2/3-5-2/3-5-2/3-0-2/3-5-2/3-5-2/3-5-2/3-5-------3-0---0-0-0-0-...---|
short solo fill
|-/10---10-10-10.....13b15---|
|-/10---10-10-10.....--------|
|----------------------------|
|----------------------------|
|----------------------------|
|----------------------------|
riff A:
|--------------------|----|------------------------------------|--------------|
|--------------------|----|------------------------------------|--------------|
|--------------------|-0/-|------------------------------------|0///----------|
|-12---12---12-12----|-/0-|------14p12-14p12--12---12---12-----|///0--12------|
|-12---12---12-12----|----|-10---10----10-----10---10---10-10--|----..10-10-0-|
|-12---12---12-12----|----|-10---10----10-----9----9----9--10--|------9--9----|
|-----------------------------------------------------|
|-----2----2-3---3----3-2---2----2-3-------_____------|
|-----2----2-2---2----2-2---2----2-2-------5r4p2------|
|-2---2----2-4---4----4-2---2----2-4---4-2-------4-2--|
|-0---0------0----------0---0-------------------------|
|-----------------------------------------------------|
A G F# A
G F# D trem
G D A-3-2---0--------|
D----------3b-0--|
G D A-5-3-0-3-0-3-0-----|
D-5-3-0-3-0-3-0-0-0-|
G D A-3/5------3-0---| G D
D-3/5------3-0-0-|
F G D...
solo fill maybe two guitars
|------------------------------------------------------------------|
|-13b15r__---------10-13-----10-13-----10-13-----10-13-------------|
|------------12b14-------b14-------b14-------b14-------b14_r12-10--|
|------------------------------------------------------------------|
|------------------------------------------------------------------|
|------------------------------------------------------------------|
|--------------------------|
|--------------------------|
|--------------------------|
|-12----10-----------------|
|----12-------10-8-10-8-..-|
|--------------------------|
Riff A
|-------------|----|-----------------------------|
|-------------|----|-----------------------------|
|-------------|-0/-|-----------------------------|
|-------------|-/0-|-----------------------------|
|-3h5-5-3h5-5-|----|-------2b3__r3--0------------|
|-3h5-5-3h5-5-| 4X |-0-----------------3b--0-...-|
Riff A
solo im not sure but there may be two guitars here
|-...10-10-10-10---------10--------------------------------------------|
|----10-10-10-10-13b15------10-----------__________--------------------|
|------------------------------14_r12b14-12p10-12br-p10------12---10---|
|-------------------------------------------------------12-------------|
|----------------------------------------------------------------------|
E----------------------------------------------------------------------|
|-------------------------------10------b15--13--10--------------------|
|-13b15----13b15_r13p10-13b15-------10---------------13b15---b15r13p10-|
|----------------------------------------------------------------------|
|----------------------------------------------------------------------|
|----------------------------------------------------------------------|
|----------------------------------------------------------------------|
|-------------------------------------------------------|
|-------------------------------------------------------|
|-12b14----12b_rp10-12brbr-13r12p10--12b13r12p10--------|
|----------------------------------12-----------12--12--|
|-------------------------------------------------------|
|-------------------------------------------------------|
|-------------------------------------------------|
|-------17-----17-----17--------------------------|
|-16b18----b18----b18----b18-b17-16----14----14---|
|-----------------------------------------16------|
|-------------------------------------------------|
|-------------------------------------------------|
|-----------------------17------14-------------------------------------------|
|-------17-----17------------17----17p14-17p14-------------------------------|
|-16b18----b18----b18r-------------------------17p16p14----16----14----14v---|
|-------------------------------------------------------16----16----16-------|
|----------------------------------------------------------------------------|
|----------------------------------------------------------------------------|
|-----------------------------------------------------------|
|----------17-----------------------------------------------|
|-16b_18_____---16b18---b17---16-14-16---16---16---14--16---|
|-----------------------------------------------------------|
|-----------------------------------------------------------|
|-----------------------------------------------------------|
|-17p14-17p14-17p14---------------------------------|
|-------------------17p14-17p14----14---------------|
|-------------------------------17----17p16p14------|
|----------------------------------------------16---|
|---------------------------------------------------|
|---------------------------------------------------|
|------------------------------------------------|
|------------------------------------------------|
|------------------------------------------------|
|-16p14----14-16p14-16p14------------------------|
|-------16----------------16p14-12----14/16-12---|
|----------------------------------14------------|
end of solo

|----------------------|------------------|------------------------|
|----------------------|------------------|------------------------|
|----------------------|-0/---------------|-0/-...7--5-------------|
|-3---3---3------------|-/0....5b7r rem--|-/0----------7r5-3------|
|-----------5---5----5-|------------------|-------------------5...-|
|----------------------|------------------|------------------------|
|D /D C AAG F D /D C AAG FGFD/D C /AAGFGFDD
/D C
D EFGEFGEFGEFGEFGFGGFGGFGGFGFGFDD
D trem
knock yourself out




Ваше мнение



Капча