Queen: Hammer To Fall
solo
|-19-19-17-16---------------19b21---19-17-16---------|
--19-17-16-----------------------19-17---|
-----------------------------------------|
-----------------------------------------|
-----------------------------------------|
-----------------------------------------|

|-17b19----r17---17--17--17p16-17p16----------------------------------|
-------------------------19p17-19p17----------------------|
-------------------------------------19v---18-16----------|
-------------------------------------------------19vvv---|
----------------------------------------------------------|
----------------------------------------------------------|

-------------------------------------------21b23___r21--------|
|-19r17p15------------17---19b21_r19p17----------------------------19vv---|
|----------16vv--(0)--------------------19p16vvv----19--------------------|
--------------------------------------------------------------|
--------------------------------------------------------------|
--------------------------------------------------------------|

|-17-17-17b19---17b19r17p15-19b21vv---17-19-19b20vvv---|
-------------------------------------------|
-------------------------------------------|
-------------------------------------------|
-------------------------------------------|
-------------------------------------------|

------------------------------------------------------------------|
------------------------------------------------------------------|
------------0-----0-2-0h2---0-2-3------2-3-2h3-2p0-2--3--5--7p5h7-|
|-0h2p0-----0-2-3-2h3-----2-3---------3---------------------------------------|
|-------3---------------------------------------------------------------------|
------------------------------------------------------------------|

----------------------------------------------------------------|
-------------------______-----------------____------------------|
|-----5-7-8vv----7-8p7-8p7-5-7-8h10p8-10b12rbrp9-10p9-10p9----------9-10-12-|
|-8--------------------------------------------------------12p10-12---------|
----------------------------------------------------------------|
----------------------------------------------------------------|

--------------------------------|
--------------13--15--15b17vv---|
|-14-12h14p12----12-14h15-------------------|
--15----------------------------|
--------------------------------|
--------------------------------|

---------------------------------------------------|
|-15-13-15p13-11h13-11-13-10-11-10p8-10p86-8-6-8-5-6-5--------|
--------------------------------------------7---6--|
---------------------------------------------------|
---------------------------------------------------|
---------------------------------------------------|

--------------------------12b14---12b14r12-10--9-10-12-----------------------------------|
|--------10--12b14r12p10-12-b14v-------------------------------------10---12---b14_r12p10-b14---10v--|
|-7-9------------------------------------------------------------------------------------------------|
-----------------------------------------------------------------------------------------|
-----------------------------------------------------------------------------------------|
-----------------------------------------------------------------------------------------|

|-17----16h17p16p14------------------------------------------------------------------------------------|
------------17--15--14p15-17------------------17b19---17brp14------------------------------|
-----------------------------14-16-16b18v---------------------16-14p13---------------------|
-----------------------------------------------------------------------16-14-12-11---------|
-----------------------------------------------------------------------------------12-12---|
-------------------------------------------------------------------------------------------|




Ваше мнение



Капча