Queen: Good Company
some solo-fills

|-------11-14-------11-14-|-18__p17-18---1716---18p16---14---|
|----12----------13-------|-14__p13-14---1312---14p12---11---|
|-11----------14----------------------------------|
--------------|-6-------6____3-------3___//4---|
--------------------------------------|
--------------------------------------|

-----------------------------------------|
----------------------19-----16--17/18v--|
-20-18h20p18--|-18__h20p1817--18-----18-------------|
|-----18-21------------------------------------------|
|-20-------------------------------------------------|
-----------------------------------------|


|---------14h16phphph--|--13/14____----------------------|-14----------------|
|-------14-------------------------------14--|----14-------------|
|-----15------------------13-14-14-13--------|-------15-11h13hp..|
|-16-------------------16-------------16-------------|
-----------------------------------------|
-----------------------------------------|




Ваше мнение



Капча