solo:

???
------------ ----------------------
----5____-3- --5h6-5-------3h4-3---
-----5__-3-- --5---5---7-5-3---3---
-3/5--53--- --5h7-5-------3h5-3---
------------ ----------------------
G F ------------ G F /---------------------

---------------------------------------------------------------12--------------
------------------------------------------------------------15-----------------
---------------7-9b11-7----9-11-12---11-12-14---12-14-14b16-------16b14--12----
-----5---5-7/9---------------------------------------------------------------14
-5h7---------------------------------------------------------------------------
-------------------------------------------------------------------------------

-------12-------------------------------------------------------------------
-----------------------________------________-----______-----_____--------8-
-12-14----14b16---14---12h14p12-11---11h12p11-9---9h11p9-7---7h9p7------7---
-------------------------------------------------------------------10-9-----
----------------------------------------------------------------------------
----------------------------------------------------------------------------

----------------------------------10b12----10-8-7--------
-10b12___r10p8-10---12r10p8-7-8-------------------10-8...
---------------------------------------------------------
---------------------------------------------------------
---------------------------------------------------------
---------------------------------------------------------
warning: tape-transribed, not too reliable




Ваше мнение



Капча