Queen: Fight From The Inside
Album: News of the world
1977/Roger Taylor
|-------------------------|--3------3-----------------|
|-3-----------------------|--3------3-----------------|
|-2b___4r__p0-------------|-b4------4r2___p0-----9\---|
|---------------x---9\2---|------------------2---9\---|
|---------------x---7\0---|---------------------------|
|-------------------------|---------------------------|
riff A
|---------------------------------------------------------------3----|
|---------------------------------------------------------------3----|
|-----------------------------------------------------------0---2b4--|
|-5\-------2-----2---------0----------------2-----2-----0h2-0-2------|
|-5\-------------------0h2---2p0----------------------0-0h2----------|
|-5\---0-----0-0---0-------------3b-----0-----0-0---0----------------|
|----------------------------------------------------------3----|
|----------------------------------------------------------3----|
|------------------------------------------------------0---2b4--|
|-----2-----2---------0---2------------2-----2---2-0h2-0--------|
|-------------0---0h2---2--------------------------0h2---1------|
|-0-----0-0---0-------------3b-----0-----0-0---0----------------|
|-----------------------------------------------------------------|
|-----------------------------------------------------------------|
|-7h9-9---9p7---7h9-9-9p7-9p7-----7h9-9p7-9p7-----7---------------|
|-------------9---------------9p7-------------9p7---9p7-5b--------|
|-------------------------------------------------------------7---|
|-----------------------------------------------------------------|
| riff B |
|-----------------------------------------------------------------|
|-----------------------------------------------------------------|
|-----------------------------------------------------6/7---------|
|-7/9-9---9-----7/9---9-----------7/9-9---9-------7---4/5---------|
|-5/7-7---7-----5/7---7-----------5/7-7---7-------5-----------x-x-|
|---------------------0---------------------------------------x-x-|
riffB X 4
Riff C:
|...------|-------------------------------|--------|
|...------|-7-7---7---7-7-7/9-------------|--------|
|...------|-7-7---7---7-7-7/9-------------|-0/-----|
|...------|-7-7---7---7-7-7/9-------------|-/0-----|
|...5-x-x-|-5-5---5---5-5-5/7-------------|--------|
|...--x-x-|----------------------x-x-x-x--|--x-x-x-|
|----------------------------------|-------------|----|
|-14-14---14---7-7-7/9-------------|-------------|----|
|-14-14---14---7-7-7/9-------------|-0/----------|-0/-|
|-14-14---14---7-7-7/9-------------|-/0----------|-/0-|
|-12-12---12---5-5-5/7-------------|-------------|----|
|--------------------------x-x-x-x-|---..x---x-x-|----|
|----------------------------------------------------------------|
|----------------------------------------------------------------|
|---------------------------------------------5------------------|
|-5h7-7p5-7-----5h7p5-7---x---x---5/7-7p5-7---5------------------|
|-5h7-7p5-7-----5h7p5-7---x---x---5/7-7p5-7----------7-5-7-5-----|
|----------------------------------------------------------------|
| Riff D (1)
|----------------------------------------------------------------|
|----------------------------------------------------------------|
|---------------------------------------------5------------------|
|-5h7-7p5-7-------------5-7p5-7---5/7-7p5-7---5------------5-----|
|-5h7-7p5-7---------------7p5-7---5/7-7p5-7----------5-7-7-5-----|
|----------------------------------------------------------------|
|----------------------------------------------------------------|
|----------------------------------------------------------------|
|---------------------------------------------5------------------|
|-5h7-7---7-----5h7p5-7---x---x-x-5h7-7p5-7---5------------5-----|
|-5h7-7---7-----5h7p5-7---x---x-x-5h7-7p5-7----------7-5-7-5-----|
|----------------------------------------------------------------|
| Riff D (2)
|----------------------------------------------------------------|
|--------------------------------------------------(5)-----------|
|---------------------------------------------5------------------|
|-7p5-7p5-------------------------5/7-7p5-7---5------------5-----|
|-7p5-7p5-------------------------5/7-7p5-7----------7-5-7-5-----|
|----------------------------------------------------------------|
|----------------------------------------------------------------|
|----------------------------------------------------------------|
|---------------------------------------------5------------------|
|-5h7-7p5-7-----5h7p5-7---x---x-x-5h7-7p5-7---5------------5-----|
|-5h7-7p5-7-----5h7p5-7---x---x-x-5h7-7p5-7----------7-5-7-5-----|
|----------------------------------------------------------------|
| Riff D (3)
|----------------------------------------------------------------|
|----------------------------------------------------------------|
|---------------------------------------------5------------------|
|-7p5-7p5-----7p5-7p5-7-----------7p5-7p5-x---5------------5-----|
|-7p5-7p5-----7p5-7p5-7-----------7p5-7p5-x----------7-5-7-5-----|
|----------------------------------------------------------------|
|------------------------------|--------|
|-7-7---7---7-7-7/9------------|--------|
|-7-7---7---7-7-7/9------------|-0/-----|
|-7-7---7---7-7-7/9------------|-/0-----|
|-5-5---5---5-5-5/7------------|--------|
|----------------------x-x-x-x-|--------|
riffA X 2
riffB X 5
RiffC
RiffD
|----------------------|
|-7-7---7---7-7-7/9----|
|-7-7---7---7-7-7/9----|
|-7-7---7---7-7-7/9----|
|-5-5---5---5-5-5/7----|
|----------------------|
|---------------------------------------------------------------------xx-|
|-14-14---14---7-7-7/9--------9-9-------9-9------9-9-9-9------9-9-----xx-|
|-14-14---14---7-7-7/9--------9-9-------9-9------9-9-9-9------9-9-----xx-|
|-14-14---14---7-7-7/9--------9-9-------9-9------9-9-9-9------9-9-----xx-|
|-12-12---12---5-5-5/7--------7-7-------7-7------7-7-7-7------7-7-----xx-|
|------------------------------------------------------------------------|
Transcribed by Pinter Denes
(http://goliat.eik.bme.hu/~dpinter)
Lyrics:
Fight From The Inside
Hey you boy hey you hey you boy
Think that you know what you're doing?
You think you're gonna set things to rights
You're just another picture on a teenage wall
You're just another sucker ready for a fall
You gonna fight from the inside
Attack from the rear
Fight from the inside
You can't win with your hands tied
Fight from the inside
Fight from the inside
Right down the line
Hey you boy hey you hey you boy
Think that you know what you're doing?
You think that out in the streets is all true
You're just another money spinner tool
You're just another fool
You gotta fight from the inside
Attack from the rear
Fight from the inside
You can't win with your hands tied
Fight from the inside
Fight from the inside
Right down the line




Ваше мнение



Капча