ARTIST: Queen
TITLE: Fat Bottomed Girls
ALBUM: Jazz
TABBED BY: Martin Kelly
This is my arrangement of the tune. It may take a lot of time
for you to read as there are two guitar parts, maybe my longest tab yet!
Enjoy.
GUITAR 1 = Right Channel
GUITAR 2 = Left Channel
GUITAR 1 Intro
E-----------------------------------------------------------------------------------------
B-----------------------------------------------------------------------------------------
G-----------------------------------------------------------------------------------------
D----0-0-0--0-0-0--0-0-0----5-3-2-0-----0---0--0-0--0-0-0--5-5-3-0----0-0--3-0-0-0--0-0-0-
A----5-5-5--5-5-5--5-5-5--5-------------5---5--5-5--5-5-5-------------5-5------5-5--5-5-5-
D--0----------------------------------0----------------------------0----------------------
E-----------------------------------------------------------------------------------------
B-----------------------------------------------------------------------------------------
G-----------------------------------------------------------------------------------------
D--0-0----------0-0-0--0-0-0--0-0-0--5----------------------------------------------------
A--5-5----------5-5-5--5-5-5--5-5-5--5----------------------------------------------------
D--------5-3-0----------------------------------------------------------------------------
GUITAR 1 Verses 1 + 2
E-----------------------------------------------------------------------------------------
B-----------------------------------------------------------------------------------------
G-----------------------------------------------------------------------------------------
D--0-0-0--0-0-0--0-0-0--0-0-0--0-0-0--0-0-0--7-7-7--7-7-7--0-0-0--0-0-0--0-0-0--5-5-5--5-5
A--5-5-5--5-5-5--5-5-5--5-5-5--5-5-5--5-5-5--0-0-0--0-0-0--5-5-5--5-5-5--5-5-5--0-0-0--0-0
D--------------------------------------------7-7-7--7-7-7-----------------------5-5-5--5-5
E-----------------------------------------------------------------------------------------
B-----------------------------------------------------------------------------------------
G-----------------------------------------------------------------------------------------
D--0-0-0--7-7-7--0------------------------------------------------------------------------
A--5-5-5--0-0-0--5------------------------------------------------------------------------
D---------7-7-7---------------------------------------------------------------------------
GUITAR 1 Interlude
E-----------------------------------------------------------------------------------------
B-----------------------------------------------------------------------------------------
G-----------------------------------------------------------------------------------------
D---------0-0-0--0-0-0--0-0-0--5-5-5-5--2/4-4-2-0--2/4-4-4-2-0--0-0--2/4-4--4-4-2-0--2/4-4
A---------5-5-5--5-5-5--5-5-5--5-5-5-5--------------------------5-5-----------------------
D--5-3-0----------------------------------------------------------------------------------
E-----------------------------------------------------------------------------------------
B-----------------------------------------------------------------------------------------
G-----------------------------------------------------------------------------------------
D-2-2-0-0---0-0-0-0-0-0--------0-0-0-0----------5-4--0-0-0--0-0-0--0----------------------
A-----5-5---------------------------------------5-5--5-5-5--5-5-5--5----------------------
D------------------------3-2-0----------3-2-0---------------------------------------------
GUITAR 1 Chorus
E-----------------------------------------------------------------------------------------
B-----------------------------------------------------------------------------------------
G--------------------------------2--------------------------------------------------------
D--0--------0---0-----0----0-----2-----0----5----0----7---0-----0----7---0----------------
A--5--------3---2-----5----3-----0-----5----5----5----0---5-----5----0---5----------------
D-----------------------------------------------------7--------------7--------------------
BOTH GUITARS Interlude 2
E-----------------------------------------------------------------------------------------
B-----------------------------------------------------------------------------------------
G-----------------------------------------------------------------------------------------
D--5-5-4-4--2-2-4---5-5-4-4--2-2----------------------------------------------------------
A--5-5-5-5--5-5-5---0-0-0-0--0-0----------------------------------------------------------
D-----------------------------------------------------------------------------------------
GUITAR 1 Verse 3
E----------------------7/10-9-----------7-------------------------------------------------
B--7------7------7----------------7------------7----5----3--------------------------------
G-----------------------------------------------------------------------------------------
D-----------------------------------------------------------------------------------------
A-----------------------------------------------------------------------------------------
D-----------------------------------------------------------------------------------------
GUITAR 1 Ending
play this over the top of the continious D progression.
E--10-----10--8-------------10--------8---------------------------------------------------
B----------------10-8--------------------10--8--------------------------------------------
G----------------------7------------------------------------------------------------------
D-----------------------------------------------------------------------------------------
A-----------------------------------------------------------------------------------------
D-----------------------------------------------------------------------------------------
BOTH GUITARS Ending [D Progression]
E-----------------------------------------------------------------------------------------
B-----------------------------------------------------------------------------------------
G-----------------------------------------------------------------------------------------
D---0--------------------------------------------------------------------------------------
A---5--------------------------------------------------------------------------------------
D---0--------------------------------------------------------------------------------------
Until finally...
E-----------------------------------------------------------------------------------------
B-----------------------------------------------------------------------------------------
G-----------------------------------------------------------------------------------------
D--2/4-4-4--2-0--2/4-4-2-0---2/4-2-0--4-2-0--2/4-4-2-0-0--0------------0--0------0---0---0
A------------------------5-----------------------------5--5------------5--5------5---5---5
D------------------------0-----------------------------0--0----5-3-0---0--0------0---0---0

That covers GUITAR 1, now for GUITAR 2...
You can either do exactly the same as GUITAR 1 proceedures,
or you do the following and pan Guitar 1 into both channels
for Verse and Chorus. If you follow this, then GUITAR 2 must
be panned into both channels too. If you didn't follow that,
contact the address below.
GUITAR 2 Intro, this comes in at 0:37
E---------2-2-2-2-2-2-2-3-----------------------------------------------------------------
B---------3-3-3-3-3-3-3-3-----------------------------------------------------------------
G---------2-2-2-2-2-2-2-2------------------------------------------------------------------
D-----------------------------------------------------------------------------------------
A-----------------------------------------------------------------------------------------
D--5-3-0----------------------------------------------------------------------------------
GUITAR 2 All Verses
E--2-2-2-2-2-2-2-2-2-2-2-2---------2-2-2-2-3-3-3-3-2-2---------2--------------------------
B--3-3-3-3-3-3-3-3-3-3-3-3-2-2-2-2-3-3-3-3-0-0-0-0-3-3-2-2-2-2-3--------------------------
G--2-2-2-2-2-2-2-2-2-2-2-2-2-2-2-2-2-2-2-0-0-0-0-2-2-2-2-2-2-2-2--------------------------
D--------------------------2-2-2-2-0-0-0-0-0-0-0-0-0-0-2-2-2-2-0--------------------------
A--------------------------0-0-0-0---------2-2-2-2-----0-0-0-0----------------------------
D-----------------------------------------------------------------------------------------
GUITAR 2 Chorus
E--2--------0------3-----2-----0-------------2------3-------2----------2------------2-----
B--3--------1------0-----3-----1------2------3------0-------3-----2----3-------2----3-----
G--2--------0------0-----2-----0------2------2------0-------2-----2----2-------2----2-----
D--0--------2------0-----0-----2------2------0------0-------0-----2----0-------2----0-----
A-----------3------2-----------3------0-------------2-------------0------------0----------
D-----------0------------------0----------------------------------------------------------
GUITAR 2 Additional ending
E--2-----2-----2--------------------------------------------------------------------------
B--3-----3-----3--------------------------------------------------------------------------
G--2-----2-----2--------------------------------------------------------------------------
D--0-----0-----0--------------------------------------------------------------------------
A-----------------------------------------------------------------------------------------
D-----------------------------------------------------------------------------------------
For a list of more tabs contact [email protected]




Ваше мнение



Капча