B7 C
E------------------------------------------------------------
B------------------------------------------------------------
G-4------3-4-5--4h5p4-2h4p2-4p2--2-------------
D-----------------------------------------------5-5---4h5
A-----------------------------------------------------------
E-----------------------------------------------------------
A7/C# G/D D7sus4
E---------------------------------------------------3----------------
B-------------------------------------3-3----5------5p3h5-5--3
G-2---------------------------4-4---------4-----------------------
D---5-5-5---4p2----5-5-----------------------------------------
A-------------------5-----------------------------------------------
E--------------------------------------------------------------------
D A
E-----------------3h5/7h8h10
B-3-------3h5/7----------------
G-----4h5-----------------------

Guitar 2 plays the second part: (much lower, slight distortion)
[A] [D] [A] [D] [A]
G-------------------------------------------------------------2------------------2--6-
D---------------------------------------2-2-2-2-2-2-4--4-4/3/4h5-4/3/4--4--

A-4--4-4-4-4-4h5--5-5-5-5-5h7------------------------------------------------

Higher once again, back to clean guitar one:
D A
E-2--2-2---2p0-----------------------------------------
B---------------3p2h3p2h3p2-----------3p2-----2-
G----------------------------------4p2h4p2----4p2---
D----------------------------------------------------------2
D E F Bb/FC/FF Bb/F C/F F Bb/F
E--5--5---------7--------h8------------------------------------------------------------------------------
B-------------------------------------------------------------3-3--5h6/10-10-10-10-10---------15
G-------------------------------------------------2-2--5-5-----------------------------------12p11----
D-----------------------------------3-3-3--5-5-----------------------------------------------------------
^overdrive guitar 2 plays this part
C Db/F Eb/F Db/F
E---------------------------------------------------------------------
B-13p11/10/11h13---------------------------------------------
G-----------------------10h12h13-------13p12p10h12h13-
D---------------------------------------------------------------------
????????????????????????????????????????????
E---------------------------------------------------------------------------
B-11--14--13p11/9/11-11p9---------------------------------------
G---13----------------------------12-13p12p10--12p10-------10
D---------------------------------------------------------------13p11--
A--------------------------------------------------------------------------

E--------------------------------------------------------------------------


E------------------------------------------------------------------------------
B------------------------------------------------------------------------------
G------------------------------------------------------------------------------
D-13p11p10-11p10h11p10--------------------------------------------
A---------------------------------13p11h13p11-10-----15-----15--15-
E---------------------------------------------------------13-13-----13--13-


F5, F5, F5, F5, F5, E5 (back into song with D chord and lyric, "No we`re
never gonna)

"Shut up and play the chorus, kid!"




Ваше мнение



Капча