Artist: Queen
Song: Driven by you
Tabber: Ciro Cinque
I love Queen. I think they are the only band that will never die.
Freddie Mercury, you are been the best. QUEEN FOR EVER.
Intro (Dist.)
e|--------------------------------------------------------|
B|--------------------------------------------------------|
G|--------------------------------------------------------|
D|--5-----5-5---------5-----5-5---------------------------|
A|--5-----5-5---------5-----5-5---------------------------|
E|--3-----3-3---------3-----3-3---------------------------|
Verse
e|--------------------------------------------------------------------|
B|--------------------------------------------------------------------|
G|------------5----------------------------------5--------------------|
D|--5---2-----5-------5---5-5--------5-----2-----5-----5----5--5--5-5-|
A|--5---2-----3-------5---5-5--------5-----2-----3-----5----5--5--5-5-|
E|--3---0-------------3---3-3--------3-----0-----------3----3--3--3-3-|
p.m.................. p.m. .................
Chorus
e|-------------------------------------------------------------------|
B|-------------------------------------------------------------------|
G|----5-------4-------9------9-----5----------7---7-5----------------|
D|---5-5-----4-4-----9-9-----9-9---5---9-7----7---7-5----------------|
A|--3---3---2---2---7---7----7-9---3---9-7----5---5-3----------------|
E|-----------------------------7-------7-5---------------------------|
Interlude
e|--------------------------------------------------------|
B|--------------------------------------------------------|
G|--------------------------------------------------------|
D|--5-----5-5---------5-----5-5---------------------------|
A|--5-----5-5---------5-----5-5---------------------------|
E|--3-----3-3---------3-----3-3---------------------------|
Verse2
e|--------------------------------------------------------------------|
B|--------------------------------------------------------------------|
G|------------5----------------------------------5--------------------|
D|--5---2-----5-------5---5-5--------5-----2-----5-----5----5--5--5-5-|
A|--5---2-----3-------5---5-5--------5-----2-----3-----5----5--5--5-5-|
E|--3---0-------------3---3-3--------3-----0-----------3----3--3--3-3-|
p.m.................. p.m. .................
Chorus 2
e|------------------------------------------------------|
B|------------------------------------------------------|
G|----5-------4-------9------9-----5----------7---7-5---|
D|---5-5-----4-4-----9-9-----9-9---5---9-7----7---7-5---|
A|--3---3---2---2---7---7----7-9---3---9-7----5---5-3---|
E|-----------------------------7-------7-5--------------|
e|-------------------------------------------------------------------|
B|-------------------------------------------------------------------|
G|-----------------5---5-5-5-5-5--------------------5---5-5-5-5-5----|
D|-5---5-5-5-5-5---5---5-5-5-5-5----5---5-5-5-5-5---5---5-5-5-5-5----|
A|-5---5-5-5-5-5---3---3-3-3-3-3----5---5-5-5-5-5---3---3-3-3-3-3----|
E|-3---3-3-3-3-3--------------------3---3-3-3-3-3--------------------|
e|-------------------------------------------------|
B|-------------------------------------------------|
G|-----------------7---7---------------------------|
D|-7---7-7-7-7-7---7---7--5--5-----------5---------|
A|-7---7-7-7-7-7---5---5--5--5more-times-5---------|
E|-5---5-5-5-5-5----------3--3-----------2---------|
During the solo
e|-----------------------------------|
B|-----------------------------------|
G|------7-7--7-7-7-7-----------------|
D|-7----7-7--7-7-7-7-----------------|
A|-7----5-5--5-5-5-5-----------------|
E|-5---------------------------------|
e|-----------------------------------------------|
B|-----------------------------------------------|
G|-----------------7---7-7-7-7-7-----------------|
D|-7---7-7-7-7-7---7---7-7-7-7-7-----------------| 3 Times
A|-7---7-7-7-7-7---5---5-5-5-5-5-----------------|
E|-5---5-5-5-5-5---------------------------------|
Interlude
e|-------------------------------------------------|
B|-------------------------------------------------|
G|-------------------------------------------------|
D|--3-3---3-3-3---3-3----3--3--3-3-----------------|
A|--3-3---3-3-3---3-3----3--3--3-3-----------------|
E|--1-1---1-1-1---1-1----1--1--1-1-----------------|
Chorus
e|-------------------------------------------------------------------|
B|-------------------------------------------------------------------|
G|----5-------4-------9------9-----5----------7---7-5----------------|
D|---5-5-----4-4-----9-9-----9-9---5---9-7----7---7-5----------------|
A|--3---3---2---2---7---7----7-9---3---9-7----5---5-3----------------|
E|-----------------------------7-------7-5---------------------------|
e|-----------------------------------------------|
B|-----------------------------------------------|
G|-----------------7---7-7-7-7-7-----------------|
D|-7---7-7-7-7-7---7---7-7-7-7-7-----------------| 4 Times
A|-7---7-7-7-7-7---5---5-5-5-5-5-----------------|
E|-5---5-5-5-5-5---------------------------------|
e|------------------------------------------------|
B|------------------------------------------------|
G|-----------------9---7-7--7-7--7-7--------------|
D|-9---9-9-9-9-9---9---7-7--7-7--7-7----7---------|
A|-9---9-9-9-9-9---7---5-5--5-5--5-5----7---------|
E|-7---7-7-7-7-7------------------------5---------|
Outro
e|------|
B|------|
G|------|
D|-7-7--|
A|-7-7--|
E|-5-5--|
Driven By You
Woh - everything I do I do for you
Ow
Oh yeah
We touch and you're afraid of me
And we burn and now I'm at your feet
High speed, but you know you're in safe hands
Ooh, in the dark we make a brighter light
From one spark to the horizon wide
We trust, and together we tame the land, yeah
Oh you'd be forgiven if you think you're dreaming
But we're working night and day to make a dream come true, yeah
Everything I do is driven by you
Oh, come on babe
Oh well it's tough to make a journey through
The right stuff is dead ahead of you and me
And you know we still got time
Whoo, hold on tight to the driving wheel
This ride is really out of line
Raw deal, but there's no other that's worth a dime
You know I love you but you drive me crazy
'Cos you're saying all the things I want to say to you
(You say) Everything I do is driven by you
Everything we do, oh yeah, everything we do
Everything we do, everything we do
Everything we do is driven by you
Inner children lost their way
Now they know the price you pay
I'm holding on to life with you
'Cos life without you just won't do
Driven by you
Ahh, you know we're never gonna know who's dreaming
But we're working night and day to make the dream come true
Yeah everything I do is driven by you
Everything we do, everything we do, everything we do
Yeah everything we do, everything we do, yeah everything we do
Everything we do, everything we do, everything we do..
... is driven by, driven by, driven by you
Yeah
Ooooh everything I dooo, I do for you




Ваше мнение



Капча