Queen: Dragon Attack
sketch
two gtrs
|------------------------------------------------|
|------------------------------------------------|
|------------------------------------------------|
|-------3-3-------------3-3-----------353--------|
|-353-35---53-35-x353-35---53-35...-..---535...--|
|----5-------5-------5-------5-------------------|
|----------------------------------------------------------|
|---1------------1---------------1-----------1-------------|
|---2---4--------2---4-----------2---4-------2---4---------|
|---3---5--------3---5---53------3---5-------3---5---53----|
|---3---5-------33---5-----535---3---5-------3---5-----535-|
|-3\1---3---xxxx11---3---------xx1---3---x-xx1---3---------|
two gtrs 1:00
|---------------8--------|
|-----------8------------|
|-12b14rv---------10b12--|
|------------------------|
|------------------------|
|------------------------|
one guitar
|---------------------------------------------------------|
|-x13b15v-------------10-13-10----------------------------|
|-x---------------b14----------13-12-10----12-10v---------|
|-----------x--x------------------------12----------x--x--|
|-----------x--x------------------------------------x--x--|
|---------------------------------------------------------|
|-------------|----|-------------------------------------------------|
|-------10-13-|----|-------------__________--------------------------|
|-12b14-------|-0/-|-13-12-10----10h12p10----10----___________-10----|
|-------------|-/0-|----------12----------12----12-10h12p10----10----|
|-------------|----|----------------------------------------12----12-|
|-------------| 5X |-------------------------------------------------|
|-------------------------|
|-------------------------|
|---10----10----12---10---|
|---10---x10----12---10---|
|-x------------x----------|
|-------------------------|
|------------------------------------------------------------|----|
|------------------------------------------------------------|----|
|------------------------------------------------------------|-0/-|
|---12----12-------------10---12----12---12---10----10-------|-/0-|
|---12---x12-----x-10-12------12----12---12------12-10---12--|----|
|xxx-------------------------------x-------------------------|4.5X|
|----------------------------------------------------|
|-13b15v---10-10-13-10-------------------------------|
|----------------------13-12-11-10b----10b-----------|
|-----------------------------------12-----12--------|
|---------------------------------------------10h12--|
|----------------------------------------------------|
|------------------------------------------------|
|-------10-13-10-------_______-------------------|
|-12b14----------13-12-10h12p10----10------------|
|-------------------------------12----12---------|
|----------------------------------------10h12---|
|------------------------------------------------|
|-----------------------------------------------------------------------|
|----------------------------------------------13-----------------------|
|---------------------------------------------------10h13p12p10v--------|
|-10----10---------------------------------------------------------12---|
|----12----12-11-10-8b----------xxx8b-----------------------------------|
|------------------------10-8----------h10------------------------------|
|------------------------------------------------------------------|
|-----------------------13-10--------------------------------------|
|-----------------------------13-12-11b----------------------------|
|---------------------------------------12-10----------------------|
|------8----8---10b12-------------------------12-----------8---10--|
|-x-10---10--------------------------------------8-10---10---------|
|------------------------|
|-13-10------------------|
|-------13-12-10---------|
|----------------12-10---|
|----------------------x-|
|------------------------|
3:03 rythm gtr1
|-----------------------------------------------|
|-----------------------------------------------|
|-5b-------------------------5b-----------------|
|------7-6-5-3---3----------------7-6-5-3---3---|
|--------------5-----5---3----------------5-----|
|-----------------------------------------------|
|rythm gtr2: E5 D5 A5 G5
|----------------------------------------------------------|
|----------------------------------------------------------|
|-xxx5b-----------------------------5----------------------|
|---------7-6-5-3---5-3-----------------7-6-5-3---5----7---|
|-----------------5-------5-3---5-----------------3----5...|
|----------------------------------------------------------|
| E5 D5 A5 G5
...
3:36
|----------------------------|
|-13b15v---15r13p10-13-------|
|----------------------10v---|
|----------------------------|
|----------------------------|
|----------------------------|
|-----------------------------------------------------------------|
|---------------------------------------------13-b15_r_b-r14-b15v-|
|-----------------------------10----10-12/14----------------------|
|-----------10----10-12-10-12----12-------------------------------|
|-10---12------12-------------------------------------------------|
|-----------------------------------------------------------------|
|---------------------------------------|
|-15r13-10-13p10-12p10-11p10------------|
|----------------------------12-12b14vr-|
|---------------------------------------|
|---------------------------------------|
|---------------------------------------|
|------------------------|-------------|----|
|----13-15-b18v-----18r15p13-14-b15v---|----|
|-14---------------------|-------------|-0/-|
|------------------------|-------------|-/0-|
|------------------------|-------------|----|
|------------------------|-------------| 5X |
|--------------------------0\tr/----20-----20-----|
|-13-14-15-b17--b18vvr---x-0\--/--xb22----b22___r-|
|------------------------x-0\--/--x---------------|
|-------------------------------------------------|
|-------------------------------------------------|
|-------------------------------------------------|
|--20---20---|----|--20\tr\---|
|-b22--b22---|----|-b22\\\\---|
|------------|-0/-|-----------|
|------------|-/0-|-----------|
|------------|----|-----------|
|------------| 7X |-----------|
Transcribed by Pinter Denes
lyrics:
Dragon Attack
Take me to the room where the red's all red
Take me out of my head-'s what I said, yeah
Hey take me to the room where the
green's all green
And from what I've seen it's hot it's mean
-Gonna use my stack
-It's gotta be Mack
-Gonna get me on the track
-Got a dragon on my back
Take me to the room where the beat's all round
Gonna eat that sound - (yeah yeah yeah!)
Take me to the room where the black's all white
And the white's all black take me back to the shack
-She don't take no prisoners
-Gonna give me the business
-Got a dragon on my back
-It's a dragon attack
Get down - I said so
Hey hey - All right
She's low down
-She don't take no prisoners
Go down
-Gonna give me the business
No time
-Yeah chained to the rack!
Show time
-Got a dragon on my back
Show down
-Go find another customer
Slow down
-I gotta make my way




Ваше мнение



Капча