Queen
Dragon Attack
two gtrs
|------------------------------------------------|
|------------------------------------------------|
|------------------------------------------------|
|-------3-3-------------3-3-----------353--------|
|-353-35---53-35-x353-35---53-35...-..---535...--|
|----5-------5-------5-------5-------------------|
|----------------------------------------------------------|
|---1------------1---------------1-----------1-------------|
|---2---4--------2---4-----------2---4-------2---4---------|
|---3---5--------3---5---53------3---5-------3---5---53----|
|---3---5-------33---5-----535---3---5-------3---5-----535-|
|-31---3---xxxx11---3---------xx1---3---x-xx1---3---------|
two gtrs 1:00 one guitar
|---------------8--------|---------------------------------------------------------|
|-----------8------------|-x13b15v-------------10-13-10----------------------------|
|-12b14rv---------10b12--|-x---------------b14----------13-12-10----12-10v---------|
|------------------------|-----------x--x------------------------12----------x--x--|
|------------------------|-----------x--x------------------------------------x--x--|
|------------------------|---------------------------------------------------------|

|-------------|----|-------------------------------------------------|
|-------10-13-|----|-------------__________--------------------------|
|-12b14-------|-0/-|-13-12-10----10h12p10----10----___________-10----|
|-------------|-/0-|----------12----------12----12-10h12p10----10----|
|-------------|----|----------------------------------------12----12-|
|-------------| 5X |-------------------------------------------------|
|-------------------------|
|-------------------------|
|---10----10----12---10---|
|---10---x10----12---10---|
|-x------------x----------|
|-------------------------|
|------------------------------------------------------------|----|
|------------------------------------------------------------|----|
|------------------------------------------------------------|-0/-|
|---12----12-------------10---12----12---12---10----10-------|-/0-|
|---12---x12-----x-10-12------12----12---12------12-10---12--|----|
|xxx-------------------------------x-------------------------|4.5X|
|----------------------------------------------------|
|-13b15v---10-10-13-10-------------------------------|
|----------------------13-12-11-10b----10b-----------|
|-----------------------------------12-----12--------|
|---------------------------------------------10h12--|
|----------------------------------------------------|
|------------------------------------------------|
|-------10-13-10-------_______-------------------|
|-12b14----------13-12-10h12p10----10------------|
|-------------------------------12----12---------|
|----------------------------------------10h12---|
|------------------------------------------------|
|-----------------------------------------------------------------------|
|----------------------------------------------13-----------------------|
|---------------------------------------------------10h13p12p10v--------|
|-10----10---------------------------------------------------------12---|
|----12----12-11-10-8b----------xxx8b-----------------------------------|
|------------------------10-8----------h10------------------------------|
|-----------------------------------------------------------------------------------|
|-----------------------13-10---------------------------------13-10-----------------|
|-----------------------------13-12-11b-----------------------------13-12-10--------|
|---------------------------------------12-10--------------------------------12-10--|
|------8----8---10b12-------------------------12-----------8---10------------------x|
|-x-10---10--------------------------------------8-10---10--------------------------|
3:03 rythm gtr1
|-----------------------------------------------|
|-----------------------------------------------|
|-5b-------------------------5b-----------------|
|------7-6-5-3---3----------------7-6-5-3---3---|
|--------------5-----5---3----------------5-----|
|-----------------------------------------------|
|rythm gtr2: E5 D5 A5 G5
|----------------------------------------------------------|
|----------------------------------------------------------|
|-xxx5b-----------------------------5----------------------|
|---------7-6-5-3---5-3-----------------7-6-5-3---5----7---|
|-----------------5-------5-3---5-----------------3----5...|
|----------------------------------------------------------|
| E5 D5 A5 G5
...
3:36
|--------------------------------------------------------------------------------------------|
|-13b15v---15r13p10-13---------------------------------------------------13-b15_r_b-r14-b15v-|
|----------------------10v-------------------------------10----10-12/14----------------------|
|--------------------------------------10----10-12-10-12----12-------------------------------|
|----------------------------10---12------12-------------------------------------------------|
|--------------------------------------------------------------------------------------------|
|---------------------------------------|
|-15r13-10-13p10-12p10-11p10------------|
|----------------------------12-12b14vr-|
|---------------------------------------|
|---------------------------------------|
|---------------------------------------|
|-------------------------|-------------|----|--------------------------0 r/----20-----20-----|
|----13-15-b18v------18r15p13-14-b15v---|----|-13-14-15-b17--b18vvr---x-0--/--xb22----b22___r-|
|-14----------------------|-------------|-0/-|------------------------x-0--/--x---------------|
|-------------------------|-------------|-/0-|-------------------------------------------------|
|-------------------------|-------------|----|-------------------------------------------------|
|-------------------------|-------------| 5X |-------------------------------------------------|
|--20---20---|----|--20 r---|
|-b22--b22---|----|-b22---|
|------------|-0/-|-----------|
|------------|-/0-|-----------|
|------------|----|-----------|
|------------| 7X |-----------|




Ваше мнение



Капча