Queen:
Don`t Try Suicide

stupid chord: xx6600 (tuning: half step down)

solo: -3- -3-
-------------------------------------------------------|
8-10b11--b11-------10b11--b11_r----8-10b11--b11_r10p8--|
|----------8----------------8-----------------8--------------------|
|--------10----------------x----------------10---------------------|
|->>>10------------------------------------------------------------|
|->>>8-------------------------------------------------------------|

--------------------------------------------------------------|
|-10b12--b12-8----8-------------------------------------------------------|
---10---10b12--b12vvv----10---10------------------------------|
---------------------------------12-10-12-10---10-8----10-8---|
----------------------------------------------------10--------|
--------------------------------------------------------------|

-----------------------10b12...-|
|----10b11-b11-----8-11b12-11v----8---------|
|--8--------------8--------------8----------|
----10-------------10-----------|
--------------------------------|
--------------------------------|


Ваше мнение



Капча