Queen: Coming Soon
G D G D D C G D
A E C G A E
D A D E...
fill 1,3 fill 2
--------------------------------------|----------------------------------------
--------------------------------------|----------------------------------------
------9-9-----------------------------|-------9-9------------------------------
------9-9-------12---------11-------9-|-------9-9---------12----11---9---------
10-11-----10-11------10-11----10-11---|-10-11-------10-11----11----x---10-9-7--
--------------------------------------|----------------------------------------
fill4
|----------------------------------------|
|-----------------------------9----------|
|-------9-9--------------------119811-9--|
|-------9-9-------12----11---------------|
|-10-11-----10-11----11----9-------------|
|----------------------------------------|
C D# G
A E C G A E D
Solo
|-------5---------5-----------------------------------------------------------|
|-------5---------------------------------8b10---b9---5---b10-b10-b10r9-5-5-/-|
|-7b9-------7b9-------7p5----5b6-5bvv-----------------------------------------|
|-----------------------------------------------------------------------------|
|------------------------7----------------------------------------------------|
|-----------------------------------------------------------------------------|
|-------8---------------------------------------|
|---------118118-----------11b13---11-8---------|
|-10b12---------11108108b---------------8b------|
|------------------------------------------10---|
|-----------------------------------------------|
|-----------------------------------------------|
|-------------------------(0)---------------|
|-11b13---b12---8---11b13-b13-b12_r11-8-8-/-|
|-------------------------------------------|
|-------------------------------------------|
|-------------------------------------------|
|-------------------------------------------|
|----15--15--15--15--15--15--15--15----------------------|
|-15b17-b17-b17-b17-b17-b17-b17-b17-b17___r15p1315--13b--|
|--------------------------------------------------------|
|--------------------------------------------------------|
|--------------------------------------------------------|
|--------------------------------------------------------|
|-15b17-b17-b17-b17__r15p12-------------|
|--------------------------15b17-15b17__|
|---------------------------------------|
|---------------------------------------|
|---------------------------------------|
|---------------------------------------|
|---------------------------------------------------|
|_r151215121512151214121312--12------------14b15vvv-|
|--------------------------15--151412--12-----------|
|------------------------------------14-------------|
|---------------------------------------------------|
|---------------------------------------------------|
Transcribed by Pinter Denes
Lyrics:
Coming Soon
Ooooooooooo
Oh Oh Oh
I get some headaches when I hit the heights
Like in the morning after crazy nights
Like some mother in law in her nylon tights
They're always
They're always
They're always
They're always
Coming soon
Coming soon on the outside of the tracks
You take 'em
The same old babies with the same oldtoys
The neighbours screaming when the noise annoys
Somebody naggin' you when you're out with the boys
They're always
They're always
They're always
They're always
Coming soon
Coming soon on the outside of the track
They're always
They're always
They're always
They're always
Coming soon
Coming soon on the outside of the track
Coming soon
Coming soon on the outside of the track
Yeah yeah yeah




Ваше мнение



Капча