Queen: Bohemian Rhapsody
Freddie Mercury /1975/
2'25" two gtrs arr. for one
|------------|----------------------------------|----|
|------------|----------------------------------|----|
|------------|-8-------5----10------------------|-0/-|
|------------|-8-------5----10-------------8----|-/0-|
|------------|-6----5--3-----8----7-6--5---8----|----|
|-5----4--3--|-----------------------------6----|----|
|----------------------------------------------------------------------|
|----------------------------------------------------------------------|
|-8--------------------5--------------------------6-----------------2--|
|-8--------------------5--------------------------6-----6-5-4---3---2--|
|-6----5---3vv---------3----3-1-----8----7-6--5---4-----4-3-2---1---0--|
|--------------4-3-2-3----------3-1------------------------------------|
solo
|-------------------------------------------------------------------------|
|------------------11v---8---11b13vv------13v---15-16-13v---15-16-b18v----|
|-----10b12__r10p8---------------------(xx)-------------------------------|
|-8-----------------------------------------------------------------------|
|-------------------------------------------------------------------------|
|-------------------------------------------------------------------------|
______
|----------------15--16--18--b20v-----18--16--15-16-15h16p15----|
|------------18----------------------------------------------18-|
|--------17-----------------------------------------------------|
|---x-17--------------------------------------------------------|
|---------------------------------------------------------------|
|---------------------------------------------------------------|
|-15-------------________-------------------|
|----18-16-15-16-15h16p15----15-------------|
|-------------------------17----17-15-15v---|
|-------------------------------------------|
|-------------------------------------------|
|-------------------------------------------|
|------------------15-16-18-------------------15-16-18--b20v--|
|---------15-16-18-------------------15-16-18-----------------|
|--15--17----------------------15-17--------------------------|
|-------------------------------------------------------------|
|-------------------------------------------------------------|
|-------------------------------------------------------------|
|------------------------------------------------------13----------|
|-15-16-13v---15-16-13v---15-16-b18vv------------------------------|
|----------------------------------------10-12-b13v----------b13v--|
|------------------------------------------------------------------|
|------------------------------------------------------------------|
|------------------------------------------------------------------|
|-9-9-9__\2-------------|
|----------2___h3p2p0---|
|--------------------2--|
|-----------------------|
|-----------------------|
|-----------------------|
4'7" two gtrs arr. for one
|-----|-----------------------------------------------------------------------|
|-----|-----------------------------------------------------------------------|
|-----|-----------------------------------------------------------------------|
|-8---|-----------------------------------------------------------------------|
|-8---|-6---------------3-5-6---6-------------3-------6---------------3-5-6---|
|-6---|-----3---4---6---------------3---4---6---6---------3---4---6-----------|
|--------------------|
|--------------------|
|--------------------|
|--------------------|
|-8-------------5----|
|-----5---6---8---8--|

|-------------------------------------------------------------------------|
|-------------------------------------------------------------------------|
|-------8--8----------------------6v-------------8--8--8------------------|
|-8-----8--8--8---8---6-8-6------------8----8----8--8--8--6---------------|
|-8-----6--6--8-------------8----------8----8----6--6--6--6---------------|
|-6-----6--6--6---------------9--------6----6-------------4----4--3--1----|
|-----------------|
|-----------------|
|-3---------------|
|-3---3h5--3------|
|-1-----------5-3-|
|-----------------|
|-------------------------------------------|
|-------------------------------------------|
|------3-----------------------3---------3--|
|------3--------3-5p3----------3---------3--|
|------1----4h5-------5p3------1---------1--|
|-1-----------------------1---------1-------|
|-----------------------------------------------------------------------|
|-----------------------------------------------------------------------|
|-----------------------------------------------------------------------|
|-----------------------------------------------------------------------|
|-6---------------3-5-6---6-------------3-------6---------------3-5-6---|
|-----3---4---6---------------3---4---6---6---------3---4---6-----------|
|----------------------------------------------------------------|
|----------------------------------------------------------------|
|----------------------------------------------------------------|
|-------------------------5-7-8---7-8-10---8-10-11---------------|
|-8---------------5-7-8------------------------------------------|
|-----5---6---8-------------------------------------7----4----6--|
4'51" middle right
|-----------------------|-------------------------|
|-----------------------|-------------------------|
|-------------6---6-8-9-|-------------------------|
|-------6-7-9---9-------|-------------------6-8-8-|
|-6-7-9-----------------|---------6-8-9-8-9-------|
|-----------------------|-8-6-8-9-----------------|
left
|----------------------------------|
|----------------------------------|
|----------------------------------|
|------------------------------8---|
|-----------------8----8-10-11-8---|
|-10-8-10-8-10-11---11---------6---|
left right left
|-------3-6-|---------6-|----------------|
|-x---4-----|-------6---|--------8-b13v--|
|---3-------|-7---7-----|-8----8---------|
|-----------|---8-------|---10-----------|
|-6---------|-5---------|-4--------------|




Ваше мнение



Капча