Gm
Open your eyes
Bb Eb
Look up to the skies and see
Cm(7) F
I`m just a poor boy, I need no sympathy
B Bb A Bb B Bb A Bb
easy come, eays go, little high, little low (bass enters)
Eb Bb/D C#dim F7/C F7/Eb Bb
Any way the wind blows, doesn`t realy matter to me to me.

Bb Gm
Mama just killed a man
Cm Cm7 F
put a gun against his head, pulled my trigger, now he`s dead
Bb Gm Cm G+5/B Eb/Bb Adim
Mama life had just begun, but now I`ve gone and thrown it all away
Eb Bb/D Fm C/E Ab/Eb Ddim Bb Bb6 Bb7
Mama Oooo didn`t mean to make you cry, if I`m not back again this time
Eb
tomarrow,
Bb/D Cm Abm Eb Ab/Eb Eb Cdim Bb7sus4b9 Bb
Carry on, carry on as if nothing really matters.
Gm
Too late, my time has come
Cm Cm7 F
Sent shivers down my spine, body`s achin` all the time,
Bb Gm
Goodbye everybody, I`ve got to go,
Cm G+5/B Eb/Bb Adim Abmaj7 Eb/G
Gotta leave you all behind and face the truth.
Eb Bb/D Cm Fm C/E Ab/Eb Ddim Bb Bb6 Bb7
Mama Ooo I don`t want to die, I sometimes wish I`d never been born at all.

(guitar solo)

--------------------------------------------------------
----------------------------11vvvvv---8--11>(12)vvvvvv--
------------10>(12)==>10>8------------------------------
--8vvvvvv-----------------------------------------------
--------------------------------------------------------
--------------------------------------------------------


---------------------------------------------------13-15-16-18-18>(20)vvvv----
--13vvvv--15-16-13vvv--15--16--16>(18)vvvvvv>16-13----------------------------
------------------------------------------------------------------------------
------------------------------------------------------------------------------
------------------------------------------------------------------------------
------------------------------------------------------------------------------


---1816-16--15--18---15>16>15-----15-----------------------------------------
--------------------------------18-----18--16--15--16--15>16>15----15---------
----------------------------------------------------------------17----17--15--
------------------------------------------------------------------------------
------------------------------------------------------------------------------
------------------------------------------------------------------------------


--------------------------15--16--18vvvv(18)-------------------15-16-18--20vv-
-------------15--16--18--------------------------------15-16-18----------------
--15---17---------------------------------------15--17-------------------------
-------------------------------------------------------------------------------
-------------------------------------------------------------------------------
-------------------------------------------------------------------------------

---------------------------------------------------------------------------
--15--16--13vvvv---15--16--13vvv--15--16--16>(18)vvvvvv--------------------
----------------------------------------------------------10--12--12>(13)--
---------------------------------------------------------------------------
---------------------------------------------------------------------------
---------------------------------------------------------------------------


---13-----------------------------------------------------------
------------------14---14-14-14-14vvvv-147---------------------
------13vvvvvvv--------------------------------6--6vvvvv--------
------------------------------------------------------------7---
----------------------------------------------------------------
----------------------------------------------------------------

D/A A Adim A D/A A Adim
I see a little silhouetto of a man
A D/A A D/A A Adim A D/A A
Scarmouch Scarmouch will you do the fandango?
C#/G# G# C#/G# G# C/G E7 A
Thunder bolts and lightening very very frightening me
N.C.
Galileo Galileo Galileo Galileofigaro Mangnifico oh oh oh
B Bb A Bb B Bb A Bb
I`m just a poor boy nobody loves me
Ab/Eb Eb Ebdim Eb Ab/Eb Eb Ebdim Eb
He`s just a poor boy, from a poor family
Ab Eb/G F7 Bb
spare him his life from this monstrosity

Ab/Eb Eb Cdim Bb7sus4b9

B Bb A Bb B Bb Bbdim
Easy come easy go will you let me go?
Bb5 Eb Bb5 Eb Bbsus4 Bb Bbsus4 Bb
Bismillah NO, we will not let you go

Let him go
Bb Eb Bb Bbsus4 Bb Bbsus4 Bb
Bismillah we will not let you go Let him go
Bb Eb Bb Bbsus4 Bb Bbsus4 Bb
bismillah we will not let you go Let me go
Bbsus4 Bb Bbsus4 Bb Bbsus4 Bb Bbsus4 Bb
will not let you go let me go will not let you go

let me go oh oh oh oh oh
A5 D Db Gb Bb5 Eb5 Eb Ab Eb N.C. Bb
no no no no no no no Oh mamamia mamamia mamamia let me go
Eb Ab D7 Gm Bb5
Beelzebub has a devil put aside for me for me for me



----------------------------------------------------
----------------------------------------------------
----------------------------------------------------
----------------------------------------------------
-------------3---5---6---6-----------3-----------6--
--3---4---6----------------3---4---6----6vvvvvv-----


--------------------------------------------------------------------
--------------------------------------------------------------------
-------------------------------------------------------------8--8---
---------------------------------------------------8---------8--8---
-------------3---5---6---8-----------5-------------8---------6--6---
--3---4---6----------------5---6---8----6----6-----6----------------


--------------------------------------------------------------------
--------------------------------------------------------------------
----------------------------------------6vvvvvvv0-------------------
--8------83/8vvvv---6---8--6--------------------------8--------8--
--8-----------------------------8----4-----------------8------------
--6----------------------------------------------------6---------0--


-----------------------------------------------------------------------------
--------------------------4----3-----------------3---------------------------
--------------------------5----3-----------------3---------------------------
---3----------------------6----5----3------------3--3>5---3------------------
---1------1/6--6--6--6>0--6----5----3------------1-----------5>3----------3--
--------------------------4----3----1-------1>0--------------------1---------


-----------------------------------------------------------------
---3---3---------------------------------------------------------
---3---3---------------------------------------3-------------3---
---3---3-----------3-----5>3-------------------3-------------3---
---1---1---3--3/5-------------5---------------1-------------1---
-----------------------------------1-----1>0---------1-----------


---------------------------------------------------------
---------------------------------------------------------
---------------------------------------------------------
---------------------------------------------------------
--6---------------3---5---6---6-------------3------------
-----3---4----6-------------------3---4---6----6vvvvvv---


----------------------------------------------------------------------------
----------------------------------------------------------------------------
-----------------------------------------------------------------------5vvv-
------------------------------------------------------6---8vvv---6--8-------
--6------------3--5--6---8-------------5---7---8---9------------------------
-----3---4---6--------------5---6---8---------------------------------------


-----------------------------------------------------
-----------------------------------------------------
------------5----6--------------------6----6--8--9---
---8vvvvv--------------------6---8--9----9-----------
---------------------6>7--9--------------------------
-----------------------------------------------------


----------------------------------------------
----------------------------------------------
-------------------------------------3vvvvv---
------------------3--4--4>3---4---6-----------
-------3---4---6------------------------------
---4>6----------------------------------------


w/ harmonizer(8va basso)

----------------------------------------------
---------------------------------------8---9--
----------7-------7---8---10---8---10---------
--8---10-----10-------------------------------
----------------------------------------------
----------------------------------------------


hamonizer out. guitar tacet. piano fill.


guitar

-----------------------------------------------------------------
--------8----11vvvvvvvvvvvv-------------11-----------8----139---
-----8----------------------------7--10------------8-------------
--8----------------------------8----------------10---------------
-----------------------------------------------------------------
-----------------------------------------------------------------


--------------------------------------------------------------------
---8---8---8-----9--8------6-----8>9---8------10>11---103--3vvvv---
---7---8---7----10--8------7-----8>10--8------10>12---117--7vvvv---
--------------------------------------------------------------------
--------------------------------------------------------------------
--------------------------------------------------------------------


Cm Gm Cm Gm
Nothing really matters, anyone can see
Cm AbM Ab/Bb Eb Ab/Eb Eb
nothing raelly matters, nothing really matters to me

Ebdim Bb/D Dbmaj13 C Dbdim C F

Bb F Fdim C7sus4 F
Any way the wind blows




Ваше мнение



Капча