guitar solo

more gtrs arr for one
-----------17h18p17....-------7910---------------7910---------|
---16h17p16---------------7810---------7910--7810---------7910|
|------14h15p14.....----------------79----------679----79----------679----|
|-7h8p7.....-----------------------7----------79------7----------79------7|
---------------------------------7------------------7---------|
--------------------------------------------------------------|

|-------121415------91112------111212b14------------|
|-----15--------4512--------------------16b17-------|
|---78--------46-------------89--------------18b19--|
|..9-----------------------89-----------------------|
-------------67-------------------------|
----------------------------------------|




Ваше мнение



Капча