Date: Fri, 1 Sep 1995 16:49:32 +0200
From: PINTER Denes
Subject: QUEEN: bicycle_race.btab

Queen: Bicycle Race
Bass-tab

G-|--------5-----6-----------------------|
D-|-146-6---6-8-------------------------|
A-------555555-222222--------|
E---------------------444444-|

G-----------------------------------------------------|
D-|-----10--------11--------10/18-18|-----10--------11-------10-11-13--13/18|
A-|-11-----11-13-----13-11-----------|-11-----11-13-----13-11-----------------|
E-----------------------------------------------------|

G-----------------------13---------------------------|
D-|-----10--------11----------13-------|-----10--------11----------13/18-18---|
A-|-11-----11-13-----13-13/15----15----|-11-----11-13-----13-13/15------------|
E-----------------------------------------------------|

G-|--------|----------|
D-|--------|----------|
A-|--------|-138-----|
E-|-6------|------6-|--6---6-|-2----3----5--6-|

G-|--------|--7/-------|----------|
D-|--------|--5/10---|-----8--8---|----------|
A-|--------|----------|
E-|-1/6----|--------6-|-6--6-------|-91--1---|

G-----------------------------------------------------------------|
D-----------------------------------------------------------------|
A-----------------------------------------------------------------|
E-|-1/11-11-11-11-11-11-11---11-10-10-10-10-10-10---10-9-9-9-9-9-9------------|

G-----------------------------------------------------------------|
D-|-----10--------11----------------------------------------------------------|
A-|-11-----11-13-----13---------------------------------------------3---------|
E-----------11-11-11-11-11-11-11-11-7-7-7-7-7-7-7-7-4-4---4-4-4-4-4

G---------------------13------------------------------|
D-|-----10--------11--------10/13------|-----10--------11--------10/18-18----|
A-|-11-----11-13-----13-11-------------|-11-----11-13-----13-11---------------|
E-----------------------------------------------------|

G-----------------------13---------------------------|
D-|-10-----10-11-----11----10-11-13-------|-----10----------------------------|
A-|-----11--------13----11----------------|-11-----11-13---13-----------------|
E-----------------------------------------------------|

G-|---------|----14--------------10-5-5---|
D-|---------|-12----------------|-------|--------5----------------|
A-|-----3---|--------8--6-5-----|-------|-55---5--3--5-----------|
E-|-3-----------8-6-|-6---6-5/6-|-3-----|----3------------------6-|

G-----------------------------------------------------------------|
D-|---8/10-8---7--------------------------------------5---5---5---------------|
A-|-8------------5--3--3--5-7-5---3---3---3-1---3-----------------------------|
E-----------------------5---------------3---3---3---3-------------|

G-----------------------------------------------------------------|
D--------------------------------------------10--------11---------|
A-|---8-8-8-8-8-8-----7-7-7-7-7-7-----6-6-6-6-6-6----11-----11-13-----13------|
E-|-7-------------------------------------------------------------------------|

G-----------------------------------------------------------------|
D-----------------------------------------------------------------|
A-----------------------------------------------------------3-----|
E-|-10-10-10-10-10-10---7-7-7-7-7-7---3-3-3-3-3-3-3-3-3-3-3-3-3-3-3-3--------|

G-|---------7-7-------------2-------|-7-7-----7-7-----------------------------|
D-|-----7-7-----5-5-------2-------2-|-----7-7-----7-7-------------------------|
A-|-5-5-------------0-0-4-----0-4---------0-0-0-2-3-3-4-4---------|
E-----------------------------------------------------|

G-----------------------------------------|
D-----------------------------------------|
A-|-5---5-----9---9-7-------|---------1-------1-1-1-4-6-7---------|
E-|---5---5-7---7-----7-7-7-|-x-2-2-----2-2---------------|-2--2-2--2-2-2-----|

G-|---------|-10---------|---------|-6~~~---|-8-~~~--|
D-|---------|--8---|-8--------------|---------|-8~~~---|-11~~~--|
A-|-128---|-13b15rbrbr---|---------|--------|--------|
E-|------6--|-----6-|----2---3---5--6-|-1/6-----|--------|--------|

G-----|--------|
D-----|--------|
A-----|--------|
E-|-2---3---15-1-|-6/96/-|

G--------------------------------------|
D--------------------------------------|
A--------------------------------------|
E-|-11-11-11-11-11----10-10-10-10-10----9-9-9-9-9--|

G-----------------------------------------------------------------|
D-|-----10--------11----------------------------------------------------------|
A-|-11-----11-13-----13---------------------------------------------3---------|
E-----------10-10-10-10-10-10-10-10-7-7-7-7-7-7-7---4-4---4-4-4---|

G-----------------------------------------------13---|
D-|-------10--------11--------10/18--18|-----10--------11--------11-13-------|
A-|-6/11-----11-13-----13-11------------|-11-----11-13-----13-11--------------|
E-----------------------------------------------------|

G-----------------------------------------------------|
D-|-----10--------11----13-11-10----10/18-|-----10--------11----10-----------|
A-|-11-----11-13-----13----------11--------|-11-----11-13-----13--------------|
E-------------------------------------------134--4---|

transcribed by me: [email protected]
juni 25, 1995




Ваше мнение



Капча