intro
|-------12--------8----------10-----------13---------15--|
|----13---------8---------10-----------13---------15-----|
|-14----------9--------11-----------14---------16--------|
---------------------------------------------|
---------------------------------------------|
---------------------------------------------|

solo
----------------12-------------------------------------------------|
|-13b15---13vvv-----13--15------13b15--13vvv---12h13-13p12----12---------------|
---------(13)----------------------------------14----14b16---14vv--|
-------------------------------------------------------------------|
-------------------------------------------------------------------|
-------------------------------------------------------------------|

--12---------------------------12---------12---------12---|
|-12--13--15------15b17vv----15---13-15b17------15b17------x-b17------|
----------------------------------------------x-----------|
----------------------------------------------------------|
----------------------------------------------------------|
----------------------------------------------------------|

----------------------------------------------------------------------------------|
|-17r15p13---12-13----------------------------------------------------------------------------|
-------14v---12---------------------------------12--12------_____-----------------|
-----------------13r12p10--12p10------12/14-12----------10--13r12--10--12---------|
---------------------------------12----------------------------------------10--12-|
----------------------------------------------------------------------------------|

19b21-----------------------------------------------------------|
|-20b22---------------20b22___b22---22r20___p17-20p17-----------------------|
------------------------------------------20--19--17b-------x-x-|
------------------------------------------------------19/-x-x-|
----------------------------------------------------------------|
----------------------------------------------------------------|

------------------------------20b22----20p17---------------------------------------|
|-20------20----(0)---20b22---20-19---x------------------20p17---------------------------------|
|-19b21---19b21-----------------------x------------------------20p19p17------------------------|
--------------------------x---------------------------------19-17----________------|
--------------------------x---------------------------------------19-18-17-15------|
--------------------------x---------------------------------------------------17---|




Ваше мнение



Капча