Date: Tue, 10 Dec 1996 19:24:00 -0600
From: Jarvis Cocker
Do You Remember the First time? by Pulp
Lyrics by Jarvis Cocker
written by Pulp (candida...all those other people too)
From the Album His N' Hers
Intro
G - A - C X 2
The chords to the verse (bass line)
G - A - C }
G - E - C } -play whole thing 2 times
G - A - C }
* The guitar Tab for Verses are
b-------------------------------------------------------------------
g--------------------------------------------------------------12---*note
below this is start of string change
d-----12---------12---12------12---12-------12-----12----12---------
a--------------12--12------12---12-------12------12-----------------
e-------------------------------------------------------------------
* note below the changes in strings!!!
play this patten for the First G-A-C part
during the G - E - C part play the 12's with the g and d string
and on the 2nd G-A-C part play the 12's on the G and B string (I'm lazy
to tab)
Chords or Bassline for Chorus
G A
Do you remmeber the first time
C
I can't remmeber a worst time
tab on strings for this part
A-------3-----------------------33----55--66---55----33-----11--00------------
E------------------------------------------------------------------- 00------3
But you know that we've change so much since then , Oh yeah we've grown
or C to D to D# to D to C to Bb to A to E to G
Guitar tab for the chorus is
e--8----8----8----------6----------4----6----4---------------4----6----4
b----9----9----9---9-------4----6-------------------4----6--------------
g------8----8----8-------------------------------3----------------------
cont....
e------------------4----6----4-------------4-----6----4----------------6---8
---6------------6----8---6
b--------4----6--------------------4-----6--------------------6-----8-------
---------6---8------------
g---6---------------------------6------------------------6------------------
-----6--------------------
during the Oough part after the chorus
you play C#




Ваше мнение



Капча