******************************BLUE GLOW***************************
Because the whole song is just Am Dm all the way through and I don't
think there is a guitar on it (Russell plays the violin and I don't
Jarvis plays the guitar on it either) I ahve only submitted a bass tab.
*INTRO*
NOTE- DROP D TUNNING (TUNE E DOWN A STEP TO D)
LISTEN TO RECORD FOR TIMING.
Am
G------------------------------------------|
D------------------------------------------|
A-0--------0----------0--------0-----------|
D---2-2--2---2-2--3-2---2-2--2---2-2--3-2--|
Dm
G-------------------------------------------------------------|
D-------------------------------------------------------------|
A-------------------------------------------------------------|
D-5---0-0---0--5---0-0--0-2-0---5---0-0---0--5---0-0--0-2-0---|
*VERSE*
SAME AS INTRO
So late looking up at your window
As you bathe in your
Blue midnight glow
And I wonder why you're not sleeping
And I wonder
If you could know
*CHORUS*
Play this.....
Am Dm
G-----------------------------------|
D-----------------------------------|
A-0-0-0-0-0-0-0-0-------------------|
D-----------------0-0-0-0-0-0-0-0-0-|
Tonight
Make it tonight
Tonight
Make it tonight
*EVERYTHING ELSE IS THE SAME UNLESS MENTIONED!*
Crouched down by a bush at the roadside
I watch as
You pass me by
Lost down by the side of the river
No light comes
From the empty sky
Tonight
Make it tonight
Tonight
Make it tonight
*SAME SEQUENCE, BUT SLIGHTLY FASTER*
I left home at midnight
Made for the horizon
No sense of direction
I walked on for miles
Oh I hope that I find you
I hide from the headlamps
No lights from the windows
The whole town is sleeping but
Somewhere you lie
Oh I hope that I find you
Oh I'm lost by the river
My clothes are tatters
My face scared with branches
I shiver with cold
No, I don't think I'll find you
Tonight
Make it tonight
Tonight
Make it tonight
*************************************************************************
TRANSCRIBED BY
The Archetypal Loom.




Ваше мнение



Капча