!!! usa !!!Just follow
three chords: G, C, and Am. Listen to the song for timing and
strumming.

G C Am

e-----1-------- ------0------- ------0------
b-----0-------- ------1------- ------1------
g-----0-------- ------0------- ------2------
d-----0-------- ------2------- ------2------
a-----2-------- ------3------- -------------
e-----3-------- -------------- -------------

Intro/Verse: Clean

e-------------------------------------- --------------
b-------------------------------------- ----2h3h2p0---
g-------------------2--------0--------- then --------------
d---0-------2--------2-----2---2------- --------------
a----0----3---3---0------3------------- --------------
e-3------------------------------------ --------------
G C Am C

Chorus: Distorted

G, C, Am, C

The song follows the same three chords. Strum them in the
chorus.





Ваше мнение



Капча